Oops, an error
Loading. Please wait.

Mientras Duerme La Ciudad bass

49 views 1 this week
no commentswrite comment
1 2 3 4 5
3 more votes to show rating
add to favorites
×
Save as Personal and add changes to this tab that will be seen only by you. Learn more ›
×
You can save this tab as Personal to edit and correct it or add notes. All changes will be seen only by you. Learn more »
launch autoscroll
font size
0
reset
guitar tuner
edit
Autoscroll
slow
fast
+/-
esc
set tempo
stop
Estamos de vuelta. Y ahora con este número del
Maestro Rubén Blades


Intro:


G ----4-------|----4-2----|--------|---4------|
D -2----------|-2-------2-|------4-|-2--------|
A -------(3x)-|-----------|-0-2----|-----(4x)-|
E ------------|-----------|--------|----------|

G ----4-------|----4-2----|--------|-----|---|---|
D -2----------|-2-------2-|------4-|-2-2-|---|-4-|
A -------(3x)-|-----------|-0-2----|-----|---|-2-|
E ------------|-----------|--------|-----|---|---|

Versos:

"De noche, la clase alta conspira. 'Jailball', en la mano,
tramando..."

G ----4------------|-4-4-----4----|
D -2-----2---------|-----4------4-|
A ----------2-(3X)-|--------------|
E -----------------|--------------|

"La clase media descansa, estropeada, la televisión mirando"...

G -------4---------|------|----------|
D ----4-----4-(2X)-|----4-|------4-2-|
A -2---------------|-2----|-3-2------|
E -----------------|------|----------|

"La clase baja, sigue abajo, el día del cambio esperando"...

G ----4------------|-4-4-----4----|
D -2-----2---------|-----4------4-|
A ----------2-(3X)-|--------------|
E -----------------|--------------|

"El sueño llega y nos cubre a todos, con su manto"...

G -------4---------|------|----------|
D ----4-----4-(2X)-|----4-|------4-2-|
A -2---------------|-2----|-3-2------|
E -----------------|------|----------|

Estribillo:

"Y unos se tapan, con la mentira. Y otros se arropan con
la verdad"...:

G -4----|-4-2------|---------|----------|----------|
D ----2-|------2-0-|-4-5---5-|-5-4------|-4-2---2--|
A ------|----------|-----5---|------3-2-|-----2----|
E ------|----------|---------|----------|----------|

"Y todo el mundo le apuesta a la vida, mientras
duerme la ciudad"...

G ---------|---------|---------|---------|
D -4-2---2-|-----2---|-4-2---2-|-5-4-----|
A -----2---|-2-0---2-|-----2---|-----4---|
E ---------|---------|---------|-------2-|

G ---------4-|-4-2-0------|
D ------4----|--------4-2-|
A -4-2-------|------------|
E -----------|------------|

Versos (se toca con la misma estructura):

"Unos sueñan con ganancias,
otros lloran lo perdido.
Algunos no dan importancia
a lo vivido."

"Incluso, la maldad descansa,
con un suspiro.
Todos se acuestan pensando:
'!mañana, viene lo mío!'"

Estribillo (la misma estructura)

Final

G ----4-------|----4-2----|--------|---4------|
D -2----------|-2-------2-|------4-|-2--------|
A -------(3x)-|-----------|-0-2----|-----(4x)-|
E ------------|-----------|--------|----------|

G ----4-------|----4-2----|--------|-----|-----|
D -2----------|-2-------2-|------4-|-2-2-|-----|
A -------(3x)-|-----------|-0-2----|-----|-2-0-|
E ------------|-----------|--------|-----|-----|

"Y unos se acuestan, con la mentira. Y otros se arropan con
la verdad"...:

G -----|---------|----------|----------|
D -2---|-4-5---5-|-5-4------|-4-2---2--|
A ---2-|-----5---|------3-2-|-----2----|
E -----|---------|----------|----------|

"Y todo el mundo le apuesta a la vida, mientras
duerme la ciudad".

G ---------|---------|----------4-|---4---|-4-|-2-|---|---|
D -----2---|-4-2---2-|-5-4---4----|-4---2-|---|---|-4-|-2-|
A -2-0---2-|-----2---|-----4------|-------|---|---|---|---|
E ---------|---------|------------|-------|---|---|---|---|

Esta es toda la canción. Tiene sus detallitos, pero está
bien completa. Es sencilla de tocar. Hasta la próxima.

            
            
Suggest correction
Creating personal tab
Creating personal tab
You can edit any tab online and save it as your Personal.

You can edit, replace or remove any tab part or add personal notes – all changes will be seen only by you.

Personal tabs can be accessed anytime from any device, even offline.
Learn more »
Give kudos to tab author, rate the tab!
1 2 3 4 5
comments
print report bad tab
guest
Wanna post a correction for this tab? Suggest correction