Oops, an error
Loading. Please wait.

Moriré bass

52 views 1 this week
no commentswrite comment
1 2 3 4 5
3 more votes to show rating
add to favorites
×
Save as Personal and add changes to this tab that will be seen only by you. Learn more ›
×
You can save this tab as Personal to edit and correct it or add notes. All changes will be seen only by you. Learn more »
launch autoscroll
font size
0
reset
guitar tuner
edit
Autoscroll
slow
fast
+/-
esc
set tempo
stop
Hola muchachos, estoy de vuelta!!! Ahora va este son del
Maestro Rubén Blades.

Intro (alternar las 2):

G ----------|
D ----------|
A -7--7--7--| (Notas largas)
E ----------|

G --------------|
D --------------|
A -7--7-----7---|
E --------------|

Canción (Primera estrofa):

("Mi alma es un libro abierto, léelo muchacha"...):

G -----------------------------|
D ----------9-----------9-9----|
A -7---9-9----7-7---7-7--------|
E ---7------------7------------|

("Sus páginas te presento como argumento"...):

G -----------------------------------|
D -----------------------------------|
A -7---9-9---7-7---7-7---7-7--7--4---|
E ---7-----7-----7-----7-------------|

("Te la muestro orgulloso y no tiene tacha"...):

G ---------------------------------|
D --------6--4-4-----4-4-----------|
A ---4-4-----------4------4--6-6---|
E -4-------------------------------|

("Es la suma total de mi sentimiento"...):

G -----------------------------|
D ---------8--6-6----6-6-------|
A ---6--6----------6------6----|
E -6---------------------------|

("Del precio que pagó mi ilusión borracha"...):

G --------------------------|
D ------------6--4-4---4-4--|
A -4-4---4-4----------4-----|
E -----4--------------------|

("Y a la que no venció nunca el sufrimiento"...):

G ----------------------------4-4----|
D ---------------4--2-2----4------7--|
A -4--2-2---2-2----------2-----------|
E --------2--------------------------|

La segunda estrofa se toca con los mismos arreglos que la primera
(Tocar lo anterior, excepto la intro, desde el principio).

(Segunda estrofa):

"Ven, descubre quien soy antes de juzgarme,
y no te dejes llevar por las apariencias.
Acepto que quizás puedas condenarme,
pues no soy dueño de una intacta inocencia.
Mas si tu corazón decide apoyarme,
te prometo un amor donde no habrá ausencia".

Montuno

"Moriré":

G -----------------|
D -------9-7-------|
A -7--9------7-----| (I)
E -----------------|

G ------------|
D -7-9--------|
A ------9--7--| (II)
E ------------|

G -------------------------|
D -----7-8-9-9--7----------|
A -7-9-------------9--7-7--| (III)
E -------------------------|

G ----------11--9-9----|
D ---7--9-9------------|
A -7-------------------| (IV)
E ---------------------|

Solo de tres/Fade out-Fin (Se vale la imporvisación).

Es una de las mejores canciones románticas del Maestro. Sincera,
sencilla, sin metáforas alardeantes, sabrosa... En fin, vale la pena
para dedicarla a quienes se quiere conquistar. Ahí se las dejo
hermanos. No olviden escuchar la canción las veces que sean
necesarias. Espero que la disfruten y... ¡¡¡HASTA LA PRÓXIMA!!!

            
            
Suggest correction
Creating personal tab
Creating personal tab
You can edit any tab online and save it as your Personal.

You can edit, replace or remove any tab part or add personal notes – all changes will be seen only by you.

Personal tabs can be accessed anytime from any device, even offline.
Learn more »
Give kudos to tab author, rate the tab!
1 2 3 4 5
comments
print report bad tab
guest
Wanna post a correction for this tab? Suggest correction