Oops, an error
Loading. Please wait.

Pedro Navajas bass

410 views 3 this week
no commentswrite comment
1 2 3 4 5
2 more votes to show rating
add to favorites
×
Save as Personal and add changes to this tab that will be seen only by you. Learn more ›
×
You can save this tab as Personal to edit and correct it or add notes. All changes will be seen only by you. Learn more »
launch autoscroll
font size
0
reset
guitar tuner
edit
Autoscroll
slow
fast
+/-
esc
set tempo
stop
Según creo la tabulacion tiene un minimo de errores
Fui muy cuidadoso con eso, pero si se me hizo difícil
Expresar los contratiempos o síncopas del bajo,
Asi que talvez les resulte mas conveniente oir
La cancion algunas veces para captar el ritmo
(hay unos paréntesis para guiar un poco con la
Letra, a veces uno se pierde en tabs de bajo)

Intro

G |:--5---8-----8----8---7-----7----7----:|----------5----|
D |:-------------------------------------:|--0-2-3-5------|
A |:3---6---6----6-6---5---5-5--5-5---5-5:|3--------------|
E |:-------------------------------------:|-------------3-|
___________________________________________________________

G |:------5------------------7--------------------|
D |:----5--------------7----5-5----7-3-5---5------|
A |:--3--------4-7--5----5-------5-------5--------|
E |:---------5------------------------------------|
   (Como a tres cuadras de aquella esquina)

   -1----------¬ -----------2¬
G |-----5-----5-||----5---------------------------------|
D |---5-----5---||--5----6-4-----6-----------4------6---|
A |-3-----3-----||3----------6-4---4---5-8--6-6---6-----|
E |-------------||-------------------6----------4-------|
                              (un carro pasa?)


G |------------------6--7-6-|---------------------------|
D |----4-------6---6--------|---6------------4-5-6------|
A |--6-------6---4----------|-4---4---5-8--6-------6----|
E |------6-4----------------|-------6----------------4--|
                             (pedro navaja las manos?)


G |-------------------3-5-6-|---------------------------|
D |---4-------6-------------|---6-----------4------6----|
A |-6---6---6---4-----------|-4---4---5-8--6-6---6------|
E |-------4-----------------|-------6----------4--------|
                            (mientras camina pasa la vista)


G |------------------6------|---------------------------|
D |----4-------6---6--------|---6-----------4------6----|
A |--6-------6---4-----5-4--|-4---4---5-8--6-6---6------|
E |------6-4----------------|-------6----------4--------|
                             (cuando de pronto esa mujer)


G |--------------6-------4-6|-7-------------------------|
D |----4-------6---6-7-7----|---7-----------5------7----|
A |--6-------6--------------|-----5---6-9--7-7---7------|
E |------6-4----------------|-------7----------5--------|
                             (mira pa? un lado)

G |------------------7----7-|-----7-----------------7^--|
D |----5-------7---7----7---|---7---------------5-5-----|
A |--7-------7---5----5-----|-5-------6-9---7-7---------|
E |------7-5----------------|-------7-------------------|

G |-------------------------|-----7---------------------|
D |----5-------7------------|---7-----------5------7----|
A |--7-------7---5-5--5-5?-6|-5-------6-9--7-7---7------|
E |------7-5----------------|-------7----------5--------|
                             (el viejo abrigo)

G |------------------7-----7|-----------------------7^--|
D |----5-------7---7-----7--|---7---------------5-5-----|
A |--7-------7---5-----5----|-5---5---6-9---7-7---------|
E |------7-5----------------|-------7-------------------|
                             (Un .38 S&W)

G |-------------------------|:----8---------------------|
D |----5-------7---7?8^-----|:--8---------------------8-|
A |--7-------7---5----------|:6-------7-10--8---8---8---|
E |------7-5----------------|:------8---------8---6-----|
                             (puñal en mano)

                -1---------¬ -2-----------¬
G |-----------------8-----8-||--------------------------|
D |---6-------8---8-----8---||---8-------------9--------|
A |-8-------8---6-----6-----||-6----------6--7---7--8-11|
E |-----8-6-----------------||-----7--7-9----------9----|
                                         (cayo en la acera)

G |-----------------------------------------------------|
D |---11-------9-----7------------9------9-------9------|
A |-9----9---9-----9-------9----7-----7--------7---7----|
E |--------7-----------9-7----7-----7---7---------------|

G |------------------------------------------9-|--------|
D |--------------------7----7-------9----6-9---|--------|
A |---8-11---9-------9----9-------9----7-------|--------|
E |-9-----------9-7-----------9-7--------------|--------|

G |--------------------------------6--------------------|
D |---9-------------11-------9---7------------9-------9-|
A |-7---7---8-11--9----9---9---9-------6-9--7-----7-----|
E |-------9--------------7-----------7----------7---7---|
  (y creanme gente)

G |--------------------------------6----------9---------|
D |--------------------------9---7------9---9-----------|
A |--7---7----8-11--9------9---9------9---7---------9-7-|
E |----7----9---------9-7-----------7----------7-10-----|


G |-------------7---------------------------------------|
D |-9?7---7---7-----------------------------9-----------|
A |-----7---5-----7---7----8-11--9---9----9---7---------|
E |-----------------7----9---------9----7-------7-------|
   (y tropezando)

G |-----------------------------------------------------|
D |----------7-9--------------------------9--9-9-9------|
A |-----8-9---------7`7-------8-9---9------6------------|
E |--9------------7-----10-9-------9---7-7--------------|
(aquí se repite un poco lo anteriormente tabulado
durante el coro)

G |-------------------------------------|---------------|
D |----------8/10-8---------------------|---------------|
A |---8/10-8---------6`6-8-6---5-7--5-7-|---------------|
E |-8-----------------------------------|---------------|
(esta es la parte instrumental)


G |-------------------------------------|---------------|
D |-9-----9-8-----8----6-6---6-5-5----5-|8--------------|
A |---8-7-----8-6---6------4-------3----|---------------|
E |-------------------------------------|---------------|
  (la laralalalalala)


Cualquier duda escribanme, espero que haya sido de ayuda

            
            
Suggest correction
Creating personal tab
Creating personal tab
You can edit any tab online and save it as your Personal.

You can edit, replace or remove any tab part or add personal notes – all changes will be seen only by you.

Personal tabs can be accessed anytime from any device, even offline.
Learn more »
Give kudos to tab author, rate the tab!
1 2 3 4 5
comments
print report bad tab
guest
Wanna post a correction for this tab? Suggest correction