Oops, an error
Loading. Please wait.

Plástico bass

1,913 views 12 this week
no commentswrite comment
1 2 3 4 5
x 3
add to favorites
×
Save as Personal and add changes to this tab that will be seen only by you. Learn more ›
×
You can save this tab as Personal to edit and correct it or add notes. All changes will be seen only by you. Learn more »
launch autoscroll
font size
0
reset
guitar tuner
edit
Autoscroll
slow
fast
+/-
esc
set tempo
stop
Ahora con ustedes, el tema que muchos estaban esperando.
Me ha tomado muchísimo tiempo, pero pude lo lograr


Intro:

(Funky slap) (7 veces)

G ----*9*------|-----*7*------|--*7*--|----*6*-----|------|
D -------------|--------------|-------|------------|-6/9--|
A -7-----(2X)--|-5------(2X)--|-------|-4-------4--|-4/7--|
E -------------|--------------|-------|------------|------|

Salsa

G -------------|----------------------|
D ---9-7-------|-9-7------------------|
A -7-----(3X)--|------10--9-7-9----7--|
E -------------|----------------7-----|

Versos (4 veces):

"Ella era una chica plástica, de esas que veo por ahí.
De esas que, cuando se agitan, sudan Chanel Nr 3":

G ----------|----------|-------------|--------|----------|-----------|
D ----9-----|-------7--|-------------|--------|-------7--|--------9--|
A -7-----7--|----7-----|-9-8--7-7-7--|-7---7--|----7-----|-9---7-----|
E ----------|-5--------|-------------|---7----|-5--------|---7-------|

"Que sueñan casarse con un doctor, pues él puede mantenerlas mejor.
No le hablan a nadie si no es igual, a menos que sea 'Fulano de
Tal'":


G ----------0--|---------|-------------9--|
D -------0-----|---------|----------9-----|
A ----0--------|----9----|----7--7--------|
E -0-----------|-8-------|-7--------------|


"Son lindas, delgadas, de buen vestir. De mirada esquiva, y
falso reír"...

G --------------------|----------|---------------|----|
D -----------------9--|----9--7--|------7--------|----|
A -7------------9-----|-7--------|-7-10----(2X)--|----|
E ---10-9-8--7--------|----------|---------------|-7--|

Con los mismos arreglos de arriba (Aunque se puede variar un poco):

Él era un muchacho plástico
De esos que veo por ahí
Con la peinilla en la mano
Y cara de ?yo no fui?

De esos que por tema en conversación
Discuten que marca de carro es mejor
De los que prefieren el no comer
Por las apariencias que hay que tener


Pa? andar elegantes
Y así poder
Una chica plástica
Recoger

Era una pareja plástica
De esas que veo por ahí
Él pensado sólo en dinero
Ella la moda en París

Aparentando lo que no son
Viviendo en un mundo de pura ilusión
Diciendo a su hijo de cinco años:
?no juegues con niños de color extraño?

Ahogados en deudas
Para mantener
Su status social
En boda o cocktail

Era una ciudad de plástico
De esas que no quiero ver
De edificios cancerosos
Y un corazón de oropel

Donde en vez de un sol, amanece un dólar
Donde nadie ríe, donde nadie llora
Con gente de rostros de poliéster
Que escuchan sin oír y miran sin ver

"Gente que vendió por comodidad su razón de ser
y su libertad..."

G --------------------|----------|---------------|---------|
D -----------------9--|----9--7--|------7--------|---------|
A -7------------9-----|-7--------|-7-10----(2X)--|-7-9-----|
E ---10-9-8--7--------|----------|---------------|------7--|

"Oye latino. Oye hermano. Oye amigo. Nunca vendas tu destino
por el oro, no la comodidad..."

G ----------|------------------|-------------------|-------4--------|
D ----9-----|-------5-7---5-4--|---2----2-3-4---4--|----4-----------|
A -7-----7--|----5------5------|-2---2--------4----|-2-------2-2/7--|
E ----------|-5----------------|-------------------|----------------|

"Nunca descanses, pues nos falta andar bastante. Vamos todos adelante
para juntos terminar"...

G -----------------------|---------|-----------|-------4-------|
D -------7-5---5--4---2--|-2--0-0--|-----------|----4----------|
A ----5------5------2----|---------|-4-4--3-3--|-2-------(2X)--|
E -5---------------------|---------|-----------|---------------|

"Con la ignorancia que nos trae sugestionados, con modelos
importados, que no son la solución"...

G --------------|--------------|--------11------------11--|
D --------------|--------------|----11-------11----9------|
A ------7-9-----|-7-7-(2X)--7--|-9---------9----9---------|
E -5-8-------7--|-----------7--|--------------------------|

"No te dejes confundir. Busca el fondo y su razón. Recuerda,
se ven las caras, pero nunca el corazón" (2X)...

G ---------------------|------7-----5-----4-----4--|
D -7--9---9--7--9---9--|-9-7-----5-----4-----2-----|
A ------7---------7----|---------------------------|
E ---------------------|---------------------------|

"Recuerda, se ven las caras, y jamás el corazón".

G ----7-----5-----4-----4--------|-2---------|
D -7-----5-----4-----2-----------|-2---------|
A -------------------------(2X)--|-----(3X)--|
E -------------------------------|-----------|

Coro/Montuno:

G --------|-------|--------|----|
D -7---5--|----4--|----2---|-5--|
A ---5----|-3-----|-2------|----| (Varias veces)
E --------|-------|--------|----|

Mambo (4 veces):

G --------------|---------|-----------|---------|---------|
D ----9----7----|----5-5--|----5-5----|---------|---------|
A -7-----7---7--|-5-------|-3------3--|-6-(2X)--|-8-(2X)--|
E --------------|---------|-----------|---------|---------|

G -7-5-----|-------------|--------|
D ------7--|-3-----------|--------|
A ---------|---5-6--6-6--|-5-5-5--|
E ---------|-------------|--------|

Fin del mambo:

G ---------------|
D --------9-7-9--|
A -7--10---------|
E ---------------|

Coro/Montuno (los mismos arreglos varias veces)

Final (la "lista" de América):

G ---------------|----------------7-----------|
D --------9-7-9--|--------9-7--9-----9--------|
A -7--10---------|-7--10----------------10-7--|
E ---------------|----------------------------|

Fade out

Esta es toda la canción. Me ha costado mucho la parte del
mambo, pero suena igual. Tiene sus detallitos, pero está bien
completa. Cualquier duda o comentario me escriben. Agradecimiento
especial a los amigos de Youtube eaca79, JuanBassGonz y ferbassrecords.
Sin sus apores, no hubiera sido posible llevar a cabo la transcripción
de esta tab. Un abrazo. Dios me los bendiga. Hasta la próxima.

            
            
Suggest correction
Creating personal tab
Creating personal tab
You can edit any tab online and save it as your Personal.

You can edit, replace or remove any tab part or add personal notes – all changes will be seen only by you.

Personal tabs can be accessed anytime from any device, even offline.
Learn more »
Give kudos to tab author, rate the tab!
1 2 3 4 5
comments
print report bad tab
guest
Wanna post a correction for this tab? Suggest correction