Oops, an error
Loading. Please wait.

Vale Más Un Guaguancó bass

79 views 1 this week
no commentswrite comment
1 2 3 4 5
3 more votes to show rating
add to favorites
×
Save as Personal and add changes to this tab that will be seen only by you. Learn more ›
×
You can save this tab as Personal to edit and correct it or add notes. All changes will be seen only by you. Learn more »
launch autoscroll
font size
0
reset
guitar tuner
edit
Autoscroll
slow
fast
+/-
esc
set tempo
stop
Feliz año a todos mis camaradas bajistas y salseros.
Ahora les traigo este "sana-venas" del gran Tite
Curet Alonso:

Intro

G ---------------------------------5--5-6-7-4----------7--------7--|
D -5---5---5---5---5------5-----5--------------7-5---5---5---5-----|
A ---5---5---5---5---5--3----3---------------------5-------5-------|
E -----------------------------------------------------------------|

G ----------7-----------|
D -5--3-4-5---5-3-4-5---|
A ----------------------|
E ----------------------|

Canción:

"Es cuestión de analizar, mi querido compañero, si vale
más un guaguancó..."

G --------7-----7-5---------5----------5---------------|
D -5---5----5-5-----5-----5---5-----5-------4-5-5-4-5--|
A ---5-----------------3---------3--------3------------|
E -----------------------------------------------------|

"O ponerse a sollozar por un amor que te dejó..."

G --------------7---------------9----------7--------------|
D -7-------7-5-----5-5-------9-----------7---7---5---4-5--|
A ---7--5--------------5--7-------7----5-------5---5------|
E -----------------------------------5--------------------|

"Es cuestión de anteponer la experiencia de la vida..."

G --------7-----7-5---------5--|
D -5---5----5-5-----5-----5----|
A ---5-----------------3-------|
E -----------------------------|

"Sin preguntar al alma, que se va a hacer, cuando un amor
la abandonó..."

G -----------5-4---------7--------|
D ---4-5---5------7--------5---5--|
A -3-----5----------7--5-----5----|
E --------------------------------|

"Y a seguir, con el mundo hacia adelante..."

G -----5--5-4-----------------------|
D ---5--------7-5---7---5-5--3-4-5--|
A -3--------------5---5-------------|
E ----------------------------------|

"Y admitir, que lo que se fue, se fue..."

G -----5--5-4---------------------------------------------------|
D ---5---------7-5---6-7-7---------9-10-10-9-7------------------|
A -3---------------5--------5---5---------------5-5-5-5----4-5--|
E ----------------------------5--------------------------5------|

"Es cuestión ya de saber, mi querido compañero..."

G --------7-----7-5---------5--|
D -5---5----5-5-----5-----5----|
A ---5-----------------3-------|
E -----------------------------|

"No desconfíes. ¡¡NO!! ¡¡NO!!. De la fidelidad, de un buen
tambor, cuando toca el guaguancó..."

G -------------------------------------------7-7------|
D ----4-5---5---9-8-7---7---7---7---7----7-5-------5--|
A -3------5-----------7---7---7---7----5---------5----|
E ----------------------------------------------------|

Entrada al coro:

G -----5-----5--3-2-----------|
D -7-5---5-5-------------5-5--|
A -------------------3-5------|
E ----------------------------|

Coro/Montuno:

"Guaguancó, vale más que un mal amor..."

G -7-5---5-----------7--5---5------------|
D -----5--------7-5-------5----7----5-5--|
A ----------5-5-------------------5------| (3 veces)
E ---------------------------------------|


Solo de metales

G ------------------------|
D ---4-5------------------|
A -5------5-5-5--5-5-5-5--|
E ------------------------|

G -9-7--5-----------------|
D ---------7-5-7----------|
A ----------------7----5--|
E -------------------8----|

G --7--5------------------|
D --------7-5-7-----------| (5 veces)**
A ---------------7----5---|
E ------------------8-----|

G ------------------------------------|
D ----7-----6----5----5-----6-----7---| **
A -5-----4----3----3----4-----5-------|
E ------------------------------------|

**: Se toca dos veces (no cada una)

Fin del solo

G -7-7--------7----|
D -----7-7--5---5--|
A -----------------|
E -----------------|

Coro (Se tocan los mismos arreglos hasta el final)

Final:

            
            
Suggest correction
Creating personal tab
Creating personal tab
You can edit any tab online and save it as your Personal.

You can edit, replace or remove any tab part or add personal notes – all changes will be seen only by you.

Personal tabs can be accessed anytime from any device, even offline.
Learn more »
Give kudos to tab author, rate the tab!
1 2 3 4 5
comments
print report bad tab
guest
Wanna post a correction for this tab? Suggest correction