Oops, an error
Loading. Please wait.

Candombe Para Gardel tab

91 views 1 this week
no commentswrite comment
1 2 3 4 5
3 more votes to show rating
add to favorites
×
Save as Personal and add changes to this tab that will be seen only by you. Learn more ›
×
You can save this tab as Personal to edit and correct it or add notes. All changes will be seen only by you. Learn more »
launch autoscroll
font size
0
reset
how to read this tab
guitar tuner
edit
Autoscroll
slow
fast
+/-
esc
set tempo
stop

e|-------|-----------------------------|-----------------------------|
B|-------|-----------------------------|----------------7------------|
G|-------|-7--7---7------9-------------|-9--9---9------------------6-|
D|-7-7-7-|------7-----7-----7----7-7-7-|------7-----7----------7-9---|
A|-------|-----------------------------|-----------------------------|
E|-------|-----------------------------|-----------------------------|

e|---------------------------------|---------------------------------|
B|---------------------------------|---------------------------------|
G|-7-6---------------------------4-|-6-4-----------4-----------------|
D|-----9-7-5-4-----7-----5---5-7---|-----7-5-4-------7---------7-7-7-|
A|-------------7-5-----------------|------------7-5------------------|
E|---------------------------------|---------------------------------|

e|---------------------------------|---------------------------------|
B|---------------------------------|-----------------7---------------|
G|-7---7---7-------9---------------|-9---9---9---------------------6-|
D|-------7-----7-------7-----7-7-7-|-------7-----7-------------7-9---|
A|---------------------------------|---------------------------------|
E|---------------------------------|---------------------------------|

e|---------------------------------|---------------------------------|
B|---------------------------------|---------------------------------|
G|-7-6---------------------------4-|-6-4-----------4-----------5-5-5-|
D|-----9-7-5-4-----7-----5---5-7---|-----7-5-4-------7---------------|
A|-------------7-5-----------------|------------7-5------------------|
E|---------------------------------|---------------------------------|

e|---------------------------------|---------------------------------|
B|-----------5---------------------|-----------3---------------------|
G|-5-5-5-5-5---7-5-7-----4---3-3-3-|-3-3-3-3-3---5-3-5---------------|
D|---------------------------------|---------------------------------|
A|---------------------------------|-----------------------------2-4-|
E|---------------------------------|---------------------------5-----|

e|---------------------------------|---------------------------|
B|---------------------------------|---------------------------|
G|-----------------4---------2-----|---------------------------|
D|-----------2-4-5-------------5-4-|-2-----------------2-------|
A|-5---2-4-5-----------------------|-----5-5-5-4---5-----------|
E|---5-----------------------------|---------------------------|

                           Dm
Tengo un candombe para Gardel,
Gm7                             C7
   lindos recuerdos yo tengo de él,
Am7                A7                 Dm
   y hablo de un tiempo que fue muy gris
           Dm/C          Bº
con la pobreza cerca de mi,
Bb         A7             Dm
  sólo su voz me ponía feliz.
                         Dm
Lindo sombrero tenía Gardel,
Gm7                           C7
   blanca sonrisa como un clavel,
Am7            A7              Dm
   cuántos candombes yo quise oír
         Dm/C          Bº
interpretados por Don Gardel
Bb         A7           D
  pero la cosa no pudo ser.
        A7                    D
Los muchachos de la barra callejera
        A7                         D   D7
que sentimos el candombe bien de bien
        Gm7        C7        F
nos sentamos a cantar en la vereda
        Gm7         C7         F
con tambores algún tango de Gardel
          A7          D
y una muchacha que pasaba
      A7            D
relojeando el tamboril
      G7         F
suavemente me decía:
       A7            D
qué calor hace en abril
Suggest correction
Creating personal tab
Creating personal tab
You can edit any tab online and save it as your Personal.

You can edit, replace or remove any tab part or add personal notes – all changes will be seen only by you.

Personal tabs can be accessed anytime from any device, even offline.
Learn more »
Give kudos to tab author, rate the tab!
1 2 3 4 5
comments
print report bad tab
guest
Wanna post a correction for this tab? Suggest correction