Oops, an error
Loading. Please wait.

Muriendo De Plena tab

61 views 1 this week
no commentswrite comment
1 2 3 4 5
3 more votes to show rating
add to favorites
×
Save as Personal and add changes to this tab that will be seen only by you. Learn more ›
×
You can save this tab as Personal to edit and correct it or add notes. All changes will be seen only by you. Learn more »
launch autoscroll
font size
0
reset
how to read this tab
guitar tuner
edit
Autoscroll
slow
fast
+/-
esc
set tempo
stop
[correccion de la otra version y punteos]

intro
e|-----2-------3-------2------------2-------3-3-2-2-2-0-0---|
B|---3---3-0-3-------3---3-0------3---3-0-3---------------3-|
G|-2---------------2------------2---------------------------|
D|----------------------------------------------------------|
A|----------------------------------------------------------|
E|----------------------------------------------------------|

               D
Cuando yo me muera
                      G
No quiero llantos ni penas
                    A7
Prefiero que se me vele
                    D
Bailando una rica plena

             D
Y si no me muero
                     G
Tampoco me hago problema
                      A7
Porque tengo todo el tiempo
                      D
De bailar hasta que muera

                G
No quiero a la gente
           D
Todita de negro
             A7
Prefiero de rojo
               D
Vestir a mis suegros
                G
Y quiero en la tumba
             D
Pollito y arroz
            A7
Patitas de cabra
              D
Con todo y melón.

                 G
Porque yo en la vida
           D
He sido feliz
            A7
Y quiero morirme
             D
Comiendo perdiz.

Pero con vino tinto y pan
Pero con vino tinto

(repite todo de nuevo)

e|----5---3-7-0------3---2-5--------2---0-3----------0-3-2--|
B|--7---7----------5---5-----3----3---3-----0------2--------|
G|-----------------------------------------------2----------|
D|----------------------------------------------------------|
A|----------------------------------------------------------|
E|----------------------------------------------------------|

e|----5---3-7-10-----3---2-5-10------2---0-3-9-----9-12-10--|
B|--7---7----------5---5----------3---3---------10----------|
G|----------------------------------------------------------|
D|----------------------------------------------------------|
A|----------------------------------------------------------|
E|----------------------------------------------------------|

               D
Cuando yo me muera
                      G
No quiero llantos ni penas
                    A7
Prefiero que se me vele
                    D
Bailando una rica plena

             D
Y si no me muero
                     G
Tampoco me hago problema
                      A7
Porque tengo todo el tiempo
                      D
De bailar hasta que muera

FAde out:
¯¯¯¯¯¯¯¯       D
Cuando yo me muera
               G
Cuando yo me muera
            A7
quisiera morirme
              D
bonito y de plena

+++++++++++++++++++++++++++++++++++++++++++++++++++
CUALQUIER CONSULTA ESCRIBAN A MARO_RNR@
+++++++++++++++++++++++++++++++++++++++++++++++++++

            
            
Suggest correction
Creating personal tab
Creating personal tab
You can edit any tab online and save it as your Personal.

You can edit, replace or remove any tab part or add personal notes – all changes will be seen only by you.

Personal tabs can be accessed anytime from any device, even offline.
Learn more »
Give kudos to tab author, rate the tab!
1 2 3 4 5
comments
print report bad tab
guest
Wanna post a correction for this tab? Suggest correction