Oops, an error
Loading. Please wait.

Aquí Estoy tab

67 views 1 this week
no commentswrite comment
1 2 3 4 5
3 more votes to show rating
add to favorites
×
Save as Personal and add changes to this tab that will be seen only by you. Learn more ›
×
You can save this tab as Personal to edit and correct it or add notes. All changes will be seen only by you. Learn more »
launch autoscroll
font size
0
reset
how to read this tab
guitar tuner
edit
Autoscroll
slow
fast
+/-
esc
set tempo
stop
Los acordes son perfectos, pero el solo no es correcto, solo modificare
esa parte con todo respeto para David y donde se toca cada acorde.
Saludos para los skankeros y el buen fego

                         A     Bm     D     E
                     e|--5--|--7--|--10--|--7--|
                     B|--5--|--7--|--10--|--9--|
                     G|--6--|--7--|--11--|--9--|
                     D|--7--|--9--|--12--|--9--|
                     A|--7--|--9--|--12--|--7--|
                     E|--5--|--7--|--10--|--7--|
**********************************************************************

Que tal soy yo de neuvo aqui enviando esta rolota
para enpezar les pido mildisculpas ya que mis antiguas
trasncripcines estaban mal el caso de aqui estoy y
la de mexico sigo yo las notas las puse mal pero
aqui vuelvo a subir esta rola pero original esta
100% correcta y para reconpènsar mi daño les dejo
el requinto de aqui etsoy camaras esta bastante facil.

Aqui estoy  -  Los rude boys
Intro:
LA - SIm - RE - LA - SIm - MI

LA - SIm - RE - MI - LA - SIm - RE - MI

LA
Cae la noche y voy a salir
SIm                     RE              MI
Es para no pesar que sin ti me estoy muriendo
LA
No hay distracion que me inpida seguir
SIm                     RE              MI
pensando tanto en ti y es que ya no puedo mas
LA
Mira ese loco en ese rincon
SIm                     RE              MI
que muere por tu amor y que no deja de soñarte
LA
El que comparte todo tu dolor
SIm                     RE              MI MI MI
simpre he sido yo y cuando ya no puedes mas

Aqui estoy

LA                     SIm
                        Y vulve pronto por favor
RE                     MI  MI MI
que me estoy volviendo loco

Aqui estoy

LA                     SIm
                        Y no me hagas mas sufrir
RE                     MI
Por que me muero de esperar

Solo:
e|---------------------------------------------------
B|---------------------------------------------------
G|-9--7-6-7-6--------6---6--7-6---6------7-6---7-6---
D|-------------7-7-9---9--------9---9-9------9-----9-
A|---------------------------------------------------
E|---------------------------------------------------


e|---------------------------------------------------
B|---------------------------------------------------
G|-7-6---7-6---7-6------------6--7-9--9--7-6-7-6-----
D|-----9-----9-----9-6--7--9----------------------7-7
A|---------------------------------------------------
E|---------------------------------------------------


e|---------------------------------------------------
B|---------------------------------------------------
G|---6---6--7-6---6------7-6---7-6---7-6---7-6---7-6-
D|-9---9--------9---9-9------9-----9-----9-----9-----
A|---------------------------------------------------
E|---------------------------------------------------


e|---------------------------------------------------
B|------7----7-------7-----7-----7-----7-------------
G|---------7---9-7-6---9-7---9-7---9-7----9----------
D|-9-6-----------------------------------------------
A|---------------------------------------------------
E|---------------------------------------------------

LA - SIm - RE - LA - SIm - MI

LA - SIm - RE - MI - LA - SIm - RE - MI

LA
Cae la noche y no puedo dormir
SIm                        RE            MI
es de tanto pensar que sin ti me estoy muriendo
LA
Mi cama se siente muy fria sin ti
SIm                        RE            MI
y no se donde estas creo que ya no puedo mas
LA
Mira ese loco en ese rincon
SIm                        RE            MI
Que muere por tu amor y no deja de soñarte
LA
El que comparte todo tu dolor
SIm                        RE            MI  MI MI
siempre he sido yo y cuando ya no puedes mas

Aqui estoy

LA                     SIm
                        Y vuelve pronto por favor
RE                     MI MI MI
que me estoy volviendo loco

Aqui estoy

LA                     SIm
                        Y no me hagas mas sufrir
RE                     MI
Por que me muero de esperar

LA - SIm - RE - LA - SIm - MI - MI - MI - MI - MI - LA

El requinto va con una distrocion leve se oye bin chido este
requinto tocandolo bien asi yo lo toco y se oye exelente
espeor les agrade
Suggest correction
Creating personal tab
Creating personal tab
You can edit any tab online and save it as your Personal.

You can edit, replace or remove any tab part or add personal notes – all changes will be seen only by you.

Personal tabs can be accessed anytime from any device, even offline.
Learn more »
Give kudos to tab author, rate the tab!
1 2 3 4 5
comments
print report bad tab
guest
Wanna post a correction for this tab? Suggest correction