Oops, an error
Loading. Please wait.

Llamas A Mí tab

26 views 1 this week
no commentswrite comment
1 2 3 4 5
3 more votes to show rating
add to favorites
×
Save as Personal and add changes to this tab that will be seen only by you. Learn more ›
×
You can save this tab as Personal to edit and correct it or add notes. All changes will be seen only by you. Learn more »
launch autoscroll
font size
0
reset
how to read this tab
guitar tuner
edit
Autoscroll
slow
fast
+/-
esc
set tempo
stop
Hola, esta rola es muy buena, no se por que nadie la ha subido,
espero que este al 100% dudas o aclaraciones envienmelas por mail
no agrego a nadie al msn. Esta va dedicada para toda la banda que
disfruta del buen ska, en especial a Luna Negra, TE AMO PRECIOSA...

Intro despues del redoble se tocan los siguientes acordes:
    Dm    Bb    C
e|--5--|--1--|--3--|
B|--6--|--3--|--5--|
G|--7--|--3--|--5--| x 8
D|--7--|--3--|--5--|
A|--5--|--1--|--3--|
E|--5--|--1--|--3--|

Dm            Bb           C
Es medio dia, esta que nos quema el sol.
Dm            Bb             C
esta noticia, rodea el continente.
Dm            Bb        C
La policia atenta en la situacion,
Dm              Bb          C
manos vacias de tantos inconformes.

La explanada, a punto de reventar
el se adelanta y no hay quien lo mire.
De piel morena, y mirada perdida,
el se adelanta, no piensa retroceder.

Retroceder(x3)

Este inconforme, que tiene algo que esconder
va caminando y sabe que esta muerto.
Tiembla la tierra, los pobres contra el poder,
ya no hay salida, ya no hay nada que perder

Ya son las 4, y no hay quien nos de solucion
y las botellas que chocan con los cascos.
La policia comienza la situacion,
la piel morena no piensa retroceder.

Retroceder(x3)
(En esta parte entra distorsión y se tocan las mimas notas pero en
quintillas, pero esta vez se tocan asi Bb5, C5, D5, dejando sonar
la nota y enseguida en la parte de oh oh oh, se retrocede D5, C5, Bb5)


 Bb5     C5     D5
e|-----|-----|-----|
B|-----|-----|-----|
G|--3--|--5--|--7--|
D|--3--|--5--|--7--|
A|--1--|--3--|--5--|
E|-----|-----|-----|

Bb5      C5           D5     D5  C5  Bb5
¡Estamos hartos de lo mismo! Oh! Oh! Oh!
       C5              D5    D5  C5  Bb5
¡Tanta miseria y opresion!   Oh! Oh! Oh!
        C5           D5      D5  C5  Bb5
¡Desabrocho los cinturones!  Oh! Oh! Oh!
        C5              D5
¡Para que los mires mejor!

(Se repite el ritmo ska y en el coro nuevamente distorsión)

Llamas a mi(x4)

Este inconforme, que tiene algo que esconder
va caminando y sabe que esta muerto.
Tiembla la tierra, los pobres contra el poder,
ya no hay salida, ya no hay nada que perder

Estamos hartos de lo mismo! Oh! Oh! Oh!
¡Tanta miseria y opresion!  Oh! Oh! Oh!
¡Desabrocho los cinturones! Oh! Oh! Oh!
¡Para que los mires mejor!  Oh! Oh! Oh!

Llamas a mi(x4)

Estamos hartos de lo mismo! Oh! Oh! Oh!
¡Tanta miseria y opresion!  Oh! Oh! Oh!
¡Desabrocho los cinturones! Oh! Oh! Oh!
¡Para que los mires mejor!  Oh! Oh! Oh!

Pre solo:
Guitarra limpia      |Distorsión se toca x5 cada nota
    Dm                   Bb5    C5
e|----------------------|-----|-----|
B|----------------------|-----|-----|
G|----------------------|--3--|--5--|
D|----7---7---7------7--|--3--|--5--| x4
A|--5---5---5-----5-----|--1--|--3--|
E|----------------------|-----|-----|


Solo:


e|------------------------|------------------5/12-|
B|------5-5/6-5-----------|------5-5/6-5-6-8------|
G|-7--7---------7-5-7---7-|-7--7------------------|
D|--------------------7---|-----------------------|
A|------------------------|-----------------------|
E|------------------------|-----------------------|

e|-10--10-11-12--11--10----10----10-|
B|----------------------13----10----|
G|----------------------------------|
D|----------------------------------|
A|----------------------------------|
E|----------------------------------|

e|-13-12-10-13-12-10-13-12-10-13-12-10-15^(17)-| (15^(17) Bend)
B|---------------------------------------------|
G|---------------------------------------------|
D|---------------------------------------------|
A|---------------------------------------------|
E|---------------------------------------------|

Llamas a mi(x4)

Llamas a mi i iii

Final con distorsión, se toca 3 veces completo y la 4 vez
solo se toca hasta C5 y D5 se toca solo alternando el
plumilleo de arriba abajo

            
            
Suggest correction
Creating personal tab
Creating personal tab
You can edit any tab online and save it as your Personal.

You can edit, replace or remove any tab part or add personal notes – all changes will be seen only by you.

Personal tabs can be accessed anytime from any device, even offline.
Learn more »
Give kudos to tab author, rate the tab!
1 2 3 4 5
comments
print report bad tab
guest
Wanna post a correction for this tab? Suggest correction