Oops, an error
Loading. Please wait.

Un Año Igual bass

38 views 1 this week
no commentswrite comment
1 2 3 4 5
3 more votes to show rating
add to favorites
×
Save as Personal and add changes to this tab that will be seen only by you. Learn more ›
×
You can save this tab as Personal to edit and correct it or add notes. All changes will be seen only by you. Learn more »
launch autoscroll
font size
0
reset
guitar tuner
edit
Autoscroll
slow
fast
+/-
esc
set tempo
stop
Aqui una transcripcion mas de
los Rude Boys
esta muy facil la rola
solo es cuestion que
la escuchen e indentifiquen los
cambios.


Intro (Guitarra y Bajo)

0.00 min

E|---6~~~--|---------|---------|---------|
A|---------|---8~~~--|---6~~~--|---8~~~--|
D|---------|---------|---------|---------|
G|---------|---------|---------|---------|

0.06 min

E|---6~~~--|---------|---------|-------------|
A|---------|---8~~~--|---6~~~--|---8-8-8-8-8-|
D|---------|---------|---------|-------------|
G|---------|---------|---------|-------------|

0.12 min

E|--6----------|--------------|-------------|--------------|
A|-----5--8--5-|--8-----------|--6----------|--8-----------|
D|-------------|-----7--10--7-|-----5--8--5-|-----7--10--7-|
G|-------------|--------------|-------------|--------------|

E|--6----------|--------------|-------------|--------------|
A|-----5--8--5-|--8-----------|--6----------|--8-----------|
D|-------------|-----7--10--7-|-----5--8--5-|--------------|
G|-------------|--------------|-------------|--------------|

0.23 min
Año nuevo, que felicidad...

E|--6----------|--------------|-------------|--------------|
A|-----5--8--5-|--8-----------|--6----------|--8-----------|
D|-------------|-----7--10--7-|-----5--8--5-|-----7--10--7-|
G|-------------|--------------|-------------|--------------|

E|--6----------|--------------|-------------|--------------|
A|-----5--8--5-|--8-----------|--6----------|--8-----------|
D|-------------|-----7--10--7-|-----5--8--5-|--------------|
G|-------------|--------------|-------------|--------------|

0.34 min
Un año mas de sequia mortal...

E|--6----------|--------------|-------------|--------------|
A|-----5--8--5-|--8-----------|--6----------|--8-----------|
D|-------------|-----7--10--7-|-----5--8--5-|-----7--10--7-|
G|-------------|--------------|-------------|--------------|

E|--6----------|--------------|-------------|--------------|
A|-----5--8--5-|--8-----------|--6----------|--8-----------|
D|-------------|-----7--10--7-|-----5--8--5-|--------------|
G|-------------|--------------|-------------|--------------|

0.46 min

¿Que pasara? Si no existiera la navidad...

E|--6----------|--------------|-------------|--------------|
A|-----5--8--5-|--8-----------|--6----------|--8-----------|
D|-------------|-----7--10--7-|-----5--8--5-|-----7--10--7-|
G|-------------|--------------|-------------|--------------|

E|--6----------|--------------|-------------|--------------|
A|-----5--8--5-|--8-----------|--6----------|--8-----------|
D|-------------|-----7--10--7-|-----5--8--5-|--------------|
G|-------------|--------------|-------------|--------------|

0.56 min
(Regresa al Intro)

E|---6~~~--|---------|---------|---------|
A|---------|---8~~~--|---6~~~--|---8~~~--|
D|---------|---------|---------|---------|
G|---------|---------|---------|---------|

1.02 min

E|---6~~~--|---------|---------|-------------|
A|---------|---8~~~--|---6~~~--|---8-8-8-8-8-|
D|---------|---------|---------|-------------|
G|---------|---------|---------|-------------|

1.08 min

E|--6----------|--------------|-------------|--------------|
A|-----5--8--5-|--8-----------|--6----------|--8-----------|
D|-------------|-----7--10--7-|-----5--8--5-|-----7--10--7-|
G|-------------|--------------|-------------|--------------|

E|--6----------|--------------|-------------|--------------|
A|-----5--8--5-|--8-----------|--6----------|--8-----------|
D|-------------|-----7--10--7-|-----5--8--5-|--------------|
G|-------------|--------------|-------------|--------------|

1.18 min
Para nosotros regalos no hay...

E|--6----------|--------------|-------------|--------------|
A|-----5--8--5-|--8-----------|--6----------|--8-----------|
D|-------------|-----7--10--7-|-----5--8--5-|-----7--10--7-|
G|-------------|--------------|-------------|--------------|

E|--6----------|--------------|-------------|--------------|
A|-----5--8--5-|--8-----------|--6----------|--8-----------|
D|-------------|-----7--10--7-|-----5--8--5-|--------------|
G|-------------|--------------|-------------|--------------|

1.30 min
En un cuello años de frustracion...

E|--6----------|--------------|-------------|--------------|
A|-----5--8--5-|--8-----------|--6----------|--8-----------|
D|-------------|-----7--10--7-|-----5--8--5-|-----7--10--7-|
G|-------------|--------------|-------------|--------------|

E|--6----------|--------------|-------------|--------------|
A|-----5--8--5-|--8-----------|--6----------|--8-----------|
D|-------------|-----7--10--7-|-----5--8--5-|--------------|
G|-------------|--------------|-------------|--------------|

1.40 min
¿Que pasara? Si no existiera la navidad...

E|--6----------|--------------|-------------|--------------|
A|-----5--8--5-|--8-----------|--6----------|--8-----------|
D|-------------|-----7--10--7-|-----5--8--5-|-----7--10--7-|
G|-------------|--------------|-------------|--------------|

E|--6----------|--------------|-------------|--------------|
A|-----5--8--5-|--8-----------|--6----------|--8-----------|
D|-------------|-----7--10--7-|-----5--8--5-|--------------|
G|-------------|--------------|-------------|--------------|

1.52 min
¿Que pasara?

E|--6----------|--------------|-------------|--------------|
A|-----5--8--5-|--8-----------|--6----------|--8-----------|
D|-------------|-----7--10--7-|-----5--8--5-|-----7--10--7-|
G|-------------|--------------|-------------|--------------|

1.57 min
¿Que pasara?

E|--6----------|--------------|-------------|--------------|
A|-----5--8--5-|--8-----------|--6----------|--8-----------|
D|-------------|-----7--10--7-|-----5--8--5-|-----7--10--7-|
G|-------------|--------------|-------------|--------------|

2.02 min
¿Que pasara? Si no existiera la navidad...

E|--6----------|--------------|-------------|--------------|
A|-----5--8--5-|--8-----------|--6----------|--8-----------|
D|-------------|-----7--10--7-|-----5--8--5-|-----7--10--7-|
G|-------------|--------------|-------------|--------------|

E|--6----------|--------------|-------------|--------------|
A|-----5--8--5-|--8-----------|--6----------|--8-----------|
D|-------------|-----7--10--7-|-----5--8--5-|--------------|
G|-------------|--------------|-------------|--------------|

2.14 min
(termina con el intro)

E|---6~~~--|---------|---------|---------|
A|---------|---8~~~--|---6~~~--|---8~~~--|
D|---------|---------|---------|---------|
G|---------|---------|---------|---------|

2.19

E|---6~~~--|---------|---------|-------------|
A|---------|---8~~~--|---6~~~--|---8-8-8-8-8-|
D|---------|---------|---------|-------------|
G|---------|---------|---------|-------------|

2.25 min

E|---6~~~--|
A|---------|
D|---------|
G|---------|

Eso es todo!
les mando un saludo!
y arriba el ska y el reggae

Saludos
a Sublevados de Merida, Yucatan.

=)

Hasta la proxima transcripcion.
francisco_yanky93@

            
            
Suggest correction
Creating personal tab
Creating personal tab
You can edit any tab online and save it as your Personal.

You can edit, replace or remove any tab part or add personal notes – all changes will be seen only by you.

Personal tabs can be accessed anytime from any device, even offline.
Learn more »
Give kudos to tab author, rate the tab!
1 2 3 4 5
comments
print report bad tab
guest
Wanna post a correction for this tab? Suggest correction