Oops, an error
Loading. Please wait.

Un Esclavo Más bass

31 views 1 this week
no commentswrite comment
1 2 3 4 5
3 more votes to show rating
add to favorites
×
Save as Personal and add changes to this tab that will be seen only by you. Learn more ›
×
You can save this tab as Personal to edit and correct it or add notes. All changes will be seen only by you. Learn more »
launch autoscroll
font size
0
reset
guitar tuner
edit
Autoscroll
slow
fast
+/-
esc
set tempo
stop
esta es una rola k me late mucho de
los rude boys.
va sakenla!!

Intro
|------------|------------|------------|------------|
|-------8----|------------|----3--6--3-|-------8----| x2
|-6--9-----6-|----6--9--6-|-4----------|-6--9-----6-|
|------------|-7----------|------------|------------|

0:10
si en tu casa hay una lucha mortal...
|------------|      |------------|      |------------|
|-------8----|      |------------|*2    |----3--6--3-|x2
|-6--9-----6-|*2    |----6--9--6-|      |-4----------|
|------------|      |-7----------|      |------------|

|------------|
|-------8----|x2                 <--todo esto 2 veces hasta
|-6--9-----6-|                             k entra esto
|------------|

0:28 !que es lo que pasa contigo...
|-----------------------------------|
|-----------------------------------|x2
|---------44444444-6666666666666666-|
|-77777777--------------------------|

0:36
|-----------------|
|-----------------|x4
|---------44444444|
|-77777777--------|

0:45
!un esclavo mas!
|------------|------------|------------|------------|
|-------8----|------------|----3--6--3-|-------8----| x2
|-6--9-----6-|----6--9--6-|-4----------|-6--9-----6-|
|------------|-7----------|------------|------------|

|------------|      |------------|      |------------|
|-------8----|*2    |------------|*2    |----3--6--3-|x2
|-6--9-----6-|      |----6--9--6-|      |-4----------|
|------------|      |-7----------|      |------------|

|------------|
|-------8----|x2                     <--todo esto 2 veces
|-6--9-----6-|
|------------|

1:12 !que es lo que pasa contigo...
|-----------------------------------|
|-----------------------------------|x2
|---------44444444-6666666666666666-|
|-77777777--------------------------|

|-----------------|
|-----------------|x4
|---------44444444|
|-77777777--------|

1:30 (solo de bateria y guitarra)

1:43(entra el bajo)
|--------------|--------------|--------------|
|---8--8--8--8-|--------------|---6--6--6--6-|
|-6--6--6--6---|---9--9--9--9-|-4--4--4--4---|
|--------------|-7--7--7--7---|--------------|

|--------------|
|---8--8--8--8-|
|-6--6--6--6---|
|--------------|

1:52 !que es lo que pasa contigo...
|-----------------------------------|
|-----------------------------------|x2
|---------44444444-6666666666666666-|
|-77777777--------------------------|
2:01
|-------------------|
|-------------------|x4                           <---todo esto x2
|---------44444444~-|
|-77777777----------|

2:30
|-----------------------|
|-----------------------|
|-666-----444-6~---6666~|
|-----777---------------|

y ahi acaba.

dudas o comentarios envienme
 un mensaje a diegopunk_skaoi@
y califikenla k me kosto trabajo hacerla
!!!saludos!! y k viva el ska!! XD

            
            
Suggest correction
Creating personal tab
Creating personal tab
You can edit any tab online and save it as your Personal.

You can edit, replace or remove any tab part or add personal notes – all changes will be seen only by you.

Personal tabs can be accessed anytime from any device, even offline.
Learn more »
Give kudos to tab author, rate the tab!
1 2 3 4 5
comments
print report bad tab
guest
Wanna post a correction for this tab? Suggest correction