Oops, an error
Loading. Please wait.

Lobicán tab

22 views 1 this week
no commentswrite comment
1 2 3 4 5
3 more votes to show rating
add to favorites
×
Save as Personal and add changes to this tab that will be seen only by you. Learn more ›
×
You can save this tab as Personal to edit and correct it or add notes. All changes will be seen only by you. Learn more »
launch autoscroll
font size
0
reset
how to read this tab
guitar tuner
edit
Autoscroll
slow
fast
+/-
esc
set tempo
stop
Me he lanzado a hacer mi primera transcripción. Es de un grupo gallego
llamado Ruxe Ruxe y cantan en gallego, pero no es muy dificil de
entender. Para quien tenga curiosidad que me contacte (abajo de la
tablatura pongo el mail)

Intro - ARPEGIO (2 veces antes de que entre la batería, luego sigue
sonando de fondo durante el solo)

         MIm                DO               SOL               RE
e|----------------|-----------------|-----------------|--------2---2----|
B|----------------|--------1---1----|--------3---3----|------3---3---3--|
G|-------0---0----|------0---0---0--|----------0---0--|----2------------|
D|-----2---2---2--|----2------------|------0----------|--0--------------|
A|---2------------|--3--------------|----2------------|-----------------|
E|-0--------------|-----------------|--3--------------|-----------------|


0:17 - Solo

e|----------------|------7-------|
B|-5/8-8-7-8-9^-8-|-10^^---10----|
G|----------------|--------------|
D|----------------|--------------|
A|----------------|--------------|
E|----------------|--------------|

e|----------------|------10p-10--|
B|-5/8-8-7-8-9^-8-|-10^^---------|
G|----------------|--------------|
D|----------------|--------------|
A|----------------|--------------|
E|----------------|--------------|


Leyenda:

/   - Deslizar el dedo
^   - Subir esa cuerda 1 semitono
^^  - Subir esa cuerda 1 tono
^^^ - Subir esa cuerda tono y medio
p   - Parar el sonido de las cuerdas

Esta es la leyenda para esta transcripcción, ya que yo no sé como se
llama cada cosa, espero que lo entendáis :)


0:35 - Parte 1

MIm               DO
Sempre quixen ser
                    SOL
por un lado coma o demo,
                    RE
e ter un pouco de xenio


MIm                 DO
E ainda que fose mentira,
                    SOL
ser libre por un día e
                    RE
ver doutro xeito a vida

e|--2/0----2/0----2-3--|
B|------3------3-------|
G|---------------------|
D|---------------------|
A|---------------------|
E|---------------------|


MIm                   DO
Pero a xente coma min
                        SOL
Ten que vivir coma un can
                 RE
Encadeado á cadea

e|---------------|
B|--10--8--7-----|
G|------------9--|
D|---------------|
A|---------------|
E|---------------|


MIm              DO
Encadeadas as maus
                  SOL
Solo me queda oubear
                     RE  (Repetidas veces)
Ben alto coma un lobicán


1:10 - ESTRIBILLO

SOL      RE       MIm    DO
Lobicán, lobicán
SOL     RE      MIm
Oubear coma un lobicán

e|------------------10----------|
B|--------------10------13--10--|
G|------10--12------------------|
D|--12--------------------------|
A|------------------------------|
E|------------------------------|


SOL      RE       MIm    DO
Lobicán, lobicán
SOL     RE      DO
Oubear coma un lobicán

e|---------------------------------|
B|--10--------10----------10-------|
G|-----12-9-------12--9------12-9--|
D|---------------------------------|
A|---------------------------------|
E|---------------------------------|


SOL      RE       MIm    DO
Lobicán, lobicán
SOL     RE      DO
Oubear coma un lobicán

e|--------|
B|--9^^^--|
G|--------|
D|--------|
A|--------|
E|--------|


1:40 - SOLO DE FLAUTA (Versión guitarra) (x4, la última vez con alguna
modificación)

e|---------------7--10-8-7------------|--10-8-7----------------7--------|
B|-----------7-8-----------10-8-10-7--|---------10-8-7--7-8-10---10-8-7-|
G|-7/9-9-7-9--------------------------|---------------------------------|
D|------------------------------------|---------------------------------|
A|------------------------------------|---------------------------------|
E|------------------------------------|---------------------------------|


2:18 - Parte 2

MIm                   DO
E ainda seghue ahí estando
             SOL
O veneno no aire
                 RE
Ainda é demasiado cedo


MIm               DO
E ainda se miras ao ceo
                    SOL
ainda se ven os martelos
              RE
clavandonolos clavos

e|--2/0----2/0----2-3--|
B|------3------3-------|
G|---------------------|
D|---------------------|
A|---------------------|
E|---------------------|


MIm                   DO
Pero a xente coma min
                        SOL
Ten que vivir coma un can
                 RE
Encadeado á cadea

e|---------------|
B|--10--8--7-----|
G|------------9--|
D|---------------|
A|---------------|
E|---------------|


MIm              DO
Encadeadas as maus
                  SOL
Solo me queda oubear
                     RE  (Repetidas veces)
Ben alto coma un lobicán


2:53 - ESTRIBILLO

SOL      RE       MIm    DO
Lobicán, lobicán
SOL     RE      MIm
Oubear coma un lobicán

e|---------------------------------|
B|--10--------10----------10-------|
G|-----12-9-------12--9------12-9--|
D|---------------------------------|
A|---------------------------------|
E|---------------------------------|


SOL      RE       MIm    DO
Lobicán, lobicán
SOL     RE      DO
Oubear coma un lobicán

e|--------------------10-------10-------10--|
B|--12-12-12-12-13-12----13-12----13-12-----|
G|------------------------------------------|
D|------------------------------------------|
A|------------------------------------------|
E|------------------------------------------|


SOL      RE       MIm    DO
Lobicán, lobicán
SOL     RE      DO
Oubear coma un lobicán

e|--------|
B|--9^^^--|
G|--------|
D|--------|
A|--------|
E|--------|


3:25 - SOLO DE GUITARRA

e|-----10p-10----10p-10--------------|
B|--8---------8---------8--8---------|
G|---------------------------11-9-7--|
D|-----------------------------------|
A|-----------------------------------|
E|-----------------------------------|

e|-----------------------------------------|
B|------------------------------12p-12-10--|
G|---------9-9----------9-11-12------------|
D|--9-9-12------12-9-12--------------------|
A|-----------------------------------------|
E|-----------------------------------------|

Sigue la flauta

e|-------------------|--------------------|
B|-------10----------|--------------------|
G|--9-12-----9----9--|--12-10-9-----------|
D|-------------12----|----------12-10-12--|
A|-------------------|--------------------|
E|-------------------|--------------------|

e|--------------------------|-------------------------|
B|-------10-13-12-10--------|-------------------------|
G|--9-12-------------12-12--|--12-10-9----------------|
D|--------------------------|----------12-10-9-10-12--|
A|--------------------------|-------------------------|
E|--------------------------|-------------------------|


4:03 - Parte 3 (Más cañera. Podéis probar a tocar las quintas de los
acordes, o seguir con los acordes anteriores. Pongo la versión quintas
para variar, pero suena bien de todos modos)


A partir de ahora esto de fondo y con distorsión
e|------------------|--------------------|
B|------------------|--------------------|
G|--5/9-10-9--------|--------------------|
D|-----------10-----|--5/10--10-7--------|
A|------------------|-------------10-----|
E|------------------|--------------------|


MI5                   DO5
Eu mentras sigho aquí preso
                SOL5
Nesta carcel de fame
                 RE5
Estoume facendo vello


MI5                DO5
E os barrotes que teño
                  SOL5
por moito que eu tento
                  RE5
non son quen de rompelos


4:36 - ESTRIBILLO

SOL      RE       MIm    DO
Lobicán, lobicán
SOL     RE      MIm
Oubear coma un lobicán

e|---------------------------------|
B|--10--------10----------10-------|
G|-----12-9-------12--9------12-9--|
D|---------------------------------|
A|---------------------------------|
E|---------------------------------|


SOL      RE       MIm    DO
Lobicán, lobicán
SOL     RE      DO
Oubear coma un lobicán

e|--------------------10-------10-------10--|
B|--12-12-12-12-13-12----13-12----13-12-----|
G|------------------------------------------|
D|------------------------------------------|
A|------------------------------------------|
E|------------------------------------------|


SOL      RE       MIm    DO
Lobicán, lobicán
SOL     RE      DO
Oubear coma un lobicán

e|--------|
B|--9^^^--|
G|--------|
D|--------|
A|--------|
E|--------|


Autor: Vitor Neira


---------------------------------------

Bueno, esto es todo, creo. Es una trascripción bastante completa, y
supongo que tendrá fallos (pues apenas entiendo de música), pero creo
que más o menos la canción es así, y a mi, por lo menos, me suena genial.
Si queréis poneros en contacto conmigo (críticas, correcciones,
peticiones) podéis mandar un email a "mixigodo@ y os
contestaré encantado :)

Por último, quisiera dedicar la tablatura a Ismael, que es un chico de
Puertollano que toca la guitarra y que fue el que me metió a mi y me
enseñó a dar mis primeros pasos, y también a la comunidad "Os Arquivos
da Megiga", que fue donde coocí a este grupo y a muchos otros jeje

Un saludo, y gracias por leer la tablatura :)

            
            
Suggest correction
Creating personal tab
Creating personal tab
You can edit any tab online and save it as your Personal.

You can edit, replace or remove any tab part or add personal notes – all changes will be seen only by you.

Personal tabs can be accessed anytime from any device, even offline.
Learn more »
Give kudos to tab author, rate the tab!
1 2 3 4 5
comments
print report bad tab
guest
Wanna post a correction for this tab? Suggest correction