Oops, an error
Loading. Please wait.

Que Haré Con Este Amor tab

by Ha*Ash
98 views 1 this week
no commentswrite comment
1 2 3 4 5
3 more votes to show rating
add to favorites
×
Save as Personal and add changes to this tab that will be seen only by you. Learn more ›
×
You can save this tab as Personal to edit and correct it or add notes. All changes will be seen only by you. Learn more »
launch autoscroll
font size
0
reset
how to read this tab
guitar tuner
edit
Autoscroll
slow
fast
+/-
esc
set tempo
stop
********VERSIÓN PARA GUITARRA DE LA MELODÍA DE LA CANCIÓN*********
**********************************************************************

INTRO Y FINAL:

E|--------------------------------------------------------|
B|-----------------------------7-9---7-9--7--7-9---7-9----|
G|---------------------------------9-------------9------4-|
D|-4-6---4-6--4--4-6---4-6--4---------------------------6-|
A|-----7-------------7----------------------------------7-|
e|--------------------------------------------------------|

**********************************************************************

ESTROFAS 1:

Verte y despertarme junto a ti es lo que más deseo
E|----------------------------------|
B|----------------------------------|
G|-4-4-4-4-4-2-2-1-2--------------1-|
D|--------------------2-2-2-2-2-4---|
A|----------------------------------|
e|----------------------------------|

Ir a donde estés quedarme siempre ahí, detener el tiempo.
E|------------------------------------|
B|------------------------------------|
G|-4-4-4-4-4-2-2-1-2-1-2------------1-|
D|------------------------2-2-2-2-4---|
A|------------------------------------|
e|------------------------------------|

Sentir tu mano firme que no me deja ir,
E|---0------------------------|
B|-0----0-2-0---0-0-2-0-------|
G|------------1---------1---1-|
D|------------------------4---|
A|----------------------------|
e|----------------------------|

Seguir ese perfume que me recuerda a ti
E|--------------------------------------|
B|---5-s-7-5-----0---0---------7--------|
G|-------------6---------6---6---9-s--4-|
D|-6---------6-----6---9---9------------|
A|--------------------------------------|
e|--------------------------------------|

**********************************************************************

ESTRIBILLO:

¿Y yo que haré con este amor?
¿A quién se lo daré? Si tú no estás conmigo
E|---4-0-2-0-2-4-0-----------------------------------------|
B|-------------------5-5-5---9-s-5--5-7-5-7-9--5-s-7--7-5v-|
G|-4---------------4-------4-------------------------------|
D|---------------------------------------------------------|
A|---------------------------------------------------------|
e|---------------------------------------------------------|

Y yo que arriesgo el corazón,
No sé si aguantaré un día más sin ti
E|---------0-2-0-2-4-0--------------------------------------|
B|---9-s-5---------------5-5-5---9-s-5--5-7-5-7--7-s-9v--5v-|
G|-4-------------------4-------4----------------------------|
D|----------------------------------------------------------|
A|----------------------------------------------------------|
e|----------------------------------------------------------|

**********************************************************************

INTERMEDIO:

E|-------------------------------|
B|--7-9---7-9--7--7-9---7-9--7---|
G|------9-------------9--------4-|
D|-----------------------------6-|
A|-----------------------------7-|
e|-------------------------------|

**********************************************************************

ESTROFAS 2:

Dime si te sientes como yo, si sueñas con tocarme
E|----------------------------------|
B|----------------------------------|
G|-4-4-4-4-4-2-2-1-2--------------1-|
D|--------------------2-2-2-2-2-4---|
A|----------------------------------|
e|----------------------------------|


 Esta espera sabe a eternidad y se te ha hecho tarde.
E|----------------------------------|
B|----------------------------------|
G|-4-4-4-4-4-2-2-1-2--------------1-|
D|--------------------2-2-2-2-2-4---|
A|----------------------------------|
e|----------------------------------|

Creí en tus palabras del principio al fin
E|---0-----------------------|
B|-0---0-2-0---0---2-0-------|
G|-----------1---------1---1-|
D|-----------------------4---|
A|---------------------------|
e|---------------------------|

Y fui la que te amaba, me estás dejando ir
E|---0---------------------2-------|
B|-0----0-2-0---0--0-2-0-2---5-h-0-|
G|------------1--------------------|
D|---------------------------------|
A|---------------------------------|
e|---------------------------------|

**********************************************************************
Suggest correction
Creating personal tab
Creating personal tab
You can edit any tab online and save it as your Personal.

You can edit, replace or remove any tab part or add personal notes – all changes will be seen only by you.

Personal tabs can be accessed anytime from any device, even offline.
Learn more »
Give kudos to tab author, rate the tab!
1 2 3 4 5
comments
print report bad tab
guest
Wanna post a correction for this tab? Suggest correction