Oops, an error
Loading. Please wait.

Tu Mirada En Mí tab

by Ha*Ash
73 views 1 this week
no commentswrite comment
1 2 3 4 5
3 more votes to show rating
add to favorites
×
Save as Personal and add changes to this tab that will be seen only by you. Learn more ›
×
You can save this tab as Personal to edit and correct it or add notes. All changes will be seen only by you. Learn more »
launch autoscroll
font size
0
reset
how to read this tab
guitar tuner
edit
Autoscroll
slow
fast
+/-
esc
set tempo
stop
INTRO:

         C#m          A            E               B7
E--7^5---4---5---7---5^4---2---4---5---2---4---0-----------------4---2-----
B--------------------------------------------------2---0^2---0-------------
G--------------------------------------------------------------------------
D--------------------------------------------------------------------------
A--------------------------------------------------------------------------
E--------------------------------------------------------------------------

    C#m                                 A
E-----------4--------------4-------------------0---------------0-----------
B-------5------5------5-------5------------2-------2-------2-------2-------
G------------------6---------------6-------------------2-------------------
D--------------------------------------------------------------------------
A---4-----------------------------------0----------------------------------
E--------------------------------------------------------------------------
    Frente a ti es fá-cil ser        sincera, lo quiera o no lo

    E                                   B7
E-----------0---------------0------------------2--------------0------------
B-------0-------0-------0-------0-----------0-----0-------0-------0--------
G-------------------1---------------1-----------------2---------------2----
D--------------------------------------------------------------------------
A---------------------------------------2----------------------------------
E---0----------------------------------------------------------------------
    quiera no tengo otra    ma     -   nera.


    C#m                                 A
E-----------4--------------4-------------------0---------------0-----------
B-------5------5------5-------5------------2-------2-------2-------2-------
G------------------6---------------6-------------------2-------------------
D--------------------------------------------------------------------------
A---4-----------------------------------0----------------------------------
E--------------------------------------------------------------------------
    Hasta ahora hemos sido              amigos, y eso me bas    -

    E                               B7
E-----------0-----------0--------------------2---------------0-------------
B-------0-------0---0--------0-----------0-------0-------0-------0---------
G--------------------------------1-------------------2---------------2-----
D--------------------------------------------------------------------------
A-----------------------------------2--------------------------------------
E---0----------------------------------------------------------------------
    taba; yo no buscaba             más.


    F#m                                  C#m
E-----------2-------------2----------------------4--------------4----------
B-------2-------2-----2-------2-------------5------5------5---------5------
G------------------------------------------------------6----------------6--
D--------------------------------------------------------------------------
A----------------------------------------4---------------------------------
E---2----------------------------------------------------------------------
    Dime qué hiciste, dime qué cambió den - tro de mí, para cruzar la

    B7                                  A                   Am
E-----------2---------------0-------------------0-------------------0------
B-------0-------0-------0-------0-----------2-------2-----------1-------1--
G-------------------2---------------2-------------------2------------------
D--------------------------------------------------------------------------
A---2-----------------------------------0-------------------0--------------
E--------------------------------------------------------------------------
    línea entre tu y yo       -    la   que me conven   -   cio.


CORO
             E                              F#m
E--------------------0-----------0-------------------2-----------2---------
B----------------0-------0---0--------0-----------2-------2---2-------2----
G---------------------------------------1----------------------------------
D--------------------------------------------------------------------------
A--------------------------------------------------------------------------
E------------0-------------------------------2-----------------------------
    Que eres tú el silencio que me hizo      hablar, la voz que en mí dor -

    A                               B7                  B
E-----------0-----------0-------------------2-------------------2----------
B-------2-------2---2-------2-----------0-------0-----------4-------4------
G-------------------------------2-------------------2-------------------4--
D--------------------------------------------------------------------------
A---0-------------------------------2-------------------2------------------
E--------------------------------------------------------------------------
    mía, la fe que me      abri  -  gaba en tu        mirar.

         E                               B7
E----------------0-----------0--------------------2---------------0--------
B------------0-------0---0--------0-----------0-------0-------0-------0----
G-------------------------------------1-------------------2---------------2
D--------------------------------------------------------------------------
A-----------------------------------------2--------------------------------
E--------0-----------------------------------------------------------------
Que eres tú quien alimentó mi           libertad   amarte   y   no    ne-

    A               Am              A               B                   E
E-----------0---------------0---------------0---------------2-----------0--
B-------2-------2-------1-------1-------2-------2-------4-------4-------0--
G-------------------------------------------------------------------4---1--
D-----------------------------------------------------------------------2--
A---0---------------0---------------0---------------2-------------------2--
E-----------------------------------------------------------------------0--
    cesitar  de    nada,       tan  só - lo tu   mi   -   rada   en     mí.


Eléctrica:
E---4---5---7---5^4---2---4---5---2---4---0-----------------4---2----------
B---------------------------------------------2---0^2---0------------------
G--------------------------------------------------------------------------
D--------------------------------------------------------------------------
A--------------------------------------------------------------------------
E--------------------------------------------------------------------------

    C#m                                  A
E------------4--------------4---------------------0---------------0--------
B--------5------5------5-------5------------2---------2-------2-------2----
G-------------------6---------------6---------------------2----------------
D--------------------------------------------------------------------------
A----4-----------------------------------0---------------------------------
E--------------------------------------------------------------------------
Y llegaste y conocí un nuevo            día,        entraste a mi


    E                               B7
E-----------0-----------0------------------2--------------0----------------
B-------0-------0-----------0-----------0-----0-------0-------0------------
G-------------------1-----------1-----------------2---------------2--------
D--------------------------------------------------------------------------
A-----------------------------------2--------------------------------------
E---0----------------------------------------------------------------------
   vida, mi cómplice     te        hacías.


    C#m                                 A
E-----------4--------------4-------------------0----------------0----------
B-------5------5------5-------5------------2-------2--------2-------2------
G------------------6---------------6---------------------2-----------------
D--------------------------------------------------------------------------
A---4-----------------------------------0----------------------------------
E--------------------------------------------------------------------------
 No fue difícil encontrar  la          calma, le hablaste a mi

    E                              B7
E-----------0-----------0------------------2--------------0----------------
B-------0-------0-----------0-----------0-----0-------0-------0------------
G-------------------1-----------1-----------------2---------------2--------
D--------------------------------------------------------------------------
A-----------------------------------2--------------------------------------
E---0----------------------------------------------------------------------
    alma, fue mía  la              verdad.

    F#m                                 C#m
E-----------2-------------2----------------------4---------------4---------
B-------2-------2-----2-------2--------------5-------5-------5-------5-----
G--------------------------------------------------------6---------------6-
D--------------------------------------------------------------------------
A----------------------------------------4---------------------------------
E---2----------------------------------------------------------------------
Me asomo un momento a ese universo que  eres tú, y siento que

    B7                                  A                   Am
E-----------2---------------0-------------------0-------------------0------
B-------0-------0-------0-------0-----------2-------2-----------1-------1--
G-------------------2---------------2-------------------2------------------
D--------------------------------------------------------------------------
A---2-----------------------------------0-------------------0--------------
E--------------------------------------------------------------------------
 quisiera descubrir                 un poco    más   de     ti.

CORO
             E                              F#m
E--------------------0-----------0-------------------2-----------2---------
B----------------0-------0---0--------0-----------2-------2---2-------2----
G---------------------------------------1----------------------------------
D--------------------------------------------------------------------------
A--------------------------------------------------------------------------
E------------0-------------------------------2-----------------------------
    Que eres tú el silencio que me hizo      hablar, la voz que en mí dor -

    A                               B7                  B
E-----------0-----------0-------------------2-------------------2----------
B-------2-------2---2-------2-----------0-------0-----------4-------4------
G-------------------------------2-------------------2-------------------4--
D--------------------------------------------------------------------------
A---0-------------------------------2-------------------2------------------
E--------------------------------------------------------------------------
    mía, la fe que me      abri  -  gaba en tu        mirar.

         E                               B7
E----------------0-----------0--------------------2---------------0--------
B------------0-------0---0--------0-----------0-------0-------0-------0----
G-------------------------------------1-------------------2---------------2
D--------------------------------------------------------------------------
A-----------------------------------------2--------------------------------
E--------0-----------------------------------------------------------------
Que eres tú quien alimentó mi           libertad   amarte   y   no    ne-

    A               Am              A               B                   E
E-----------0---------------0---------------0---------------2-----------0--
B-------2-------2-------1-------1-------2-------2-------4-------4-------0--
G-------------------------------------------------------------------4---1--
D-----------------------------------------------------------------------2--
A---0---------------0---------------0-----------------------------------2--
E---------------------------------------------------2-------------------0--
    cesitar  de    nada,       tan  só - lo tu   mi   -   rada   en     mí.


ACORDES:
    E A D G B E
Cm# x 4 6 6 5 4
A   x 0 2 2 2 0
E   0 2 2 1 0 0
B7  x 2 1 2 0 2
F#m 2 4 4 2 2 2
B   x 2 4 4 4 2
Am  x 0 2 2 1 0

            
            
Suggest correction
Creating personal tab
Creating personal tab
You can edit any tab online and save it as your Personal.

You can edit, replace or remove any tab part or add personal notes – all changes will be seen only by you.

Personal tabs can be accessed anytime from any device, even offline.
Learn more »
Give kudos to tab author, rate the tab!
1 2 3 4 5
comments
print report bad tab
guest
Wanna post a correction for this tab? Suggest correction