Oops, an error
Loading. Please wait.

Limítate bass

version 1
version 1

Whole song

Interactive

by Hamlet
26 views 1 this week
no commentswrite comment
1 2 3 4 5
3 more votes to show rating
add to favorites
×
Save as Personal and add changes to this tab that will be seen only by you. Learn more ›
×
You can save this tab as Personal to edit and correct it or add notes. All changes will be seen only by you. Learn more »
launch autoscroll
font size
0
reset
guitar tuner
edit
Autoscroll
slow
fast
+/-
esc
set tempo
stop
Si necesitas una tab en especial, escríbeme o visita...


Revisa la afinación¡ para esta canción

                     3x                    E  E  Q    Q    E  E
F#||--------|--------||-------|-------||-------------------------|
C#||*-------|-------*||-------|-------||*------------------------|
G#||--------|--------||-------|-------||-------------------------|
D#||*-------|-------*||-------|-------||*--5--7-------7----------|
A#||--------|--------||-------|-------||---------0---------0--0--|


  E  E  E  E  E  E  E  E   3x  E  E  Q    Q    E  E
---------------------------||------------------------|
--------------------------*||------------------------|
--------------5--5--5------||------------------------|
-----7--------------------*||--5--7-------7----------|
--0-----0--0-----------0---||--------0---------0--0--|


  E  E  E  E  E  E  E  E       Q    Q    Q    E  E
--------------------------||------------------------|
--------------------------||*-----------------------|
--------------5--5--5-----||------------------------|
-----7--------------------||*-----------------------|
--0-----0--0-----------0--||---0----0----0----0--0--|


  E  E  E  E   E  E  E  E   4x  Q    E  E  E  E  E  E
----------------------------||-------------------------|
---------------------------*||-------------------------|
----------------------------||-------------------------|
---------------------------*||--7----7--7--7--7--7--7--|
--0--0--0--0s--3--3--3--3---||-------------------------|


  E  E  E  E  E  E  E  E     Q    E  E  E  E  E  E
--------------------------|-------------------------|
--------------------------|-------------------------|
--------------------------|-------------------------|
--7--7--7--7--7--5--5-----|-------------------------|
-----------------------6--|--3----3--3--3--3--3--3--|


  E  E  E  E  E  E  E  E     Q    E  E  E  E  E  E
--------------------------|-------------------------|
--------------------------|-------------------------|
--------------------------|-------------------------|
--------------------------|--7----7--7--7--7--7--7--|
--3--5--5--5--5--5--5--5--|-------------------------|


  E  E  E  E  E  E  E  E     Q    E  E  E  E  E  E
--------------------------|-------------------------|
--------------------------|-------------------------|
--------------------------|-------------------------|
--7--7--7--7--7--5--5-----|-------------------------|
-----------------------6--|--3----3--3--3--3--3--3--|


  E  E  E  E  E  E  E  E     Q    E  E  E  E  E  E
--------------------------|-------------------------|
--------------------------|-------------------------|
--------------------------|-------------------------|
--------------------9--8--|--7----7--7--7--7--7--7--|
--5--5--5--6--6--6--------|-------------------------|


  E  E  E  E  E  E  E  E     Q    E  E  E  E  E  E
--------------------------|-------------------------|
--------------------------|-------------------------|
--------------------------|-------------------------|
--7--7--7--7--7--5--5-----|-------------------------|
-----------------------6--|--3----3--3--3--3--3--3--|


  E  E  E  E  E  E  E  E     Q    E  E  E  E  E  E
--------------------------|-------------------------|
--------------------------|-------------------------|
--------------------------|-------------------------|
--------------------------|--7----7--7--7--7--7--7--|
--3--5--5--5--5--5--5--5--|-------------------------|


  E  E  E  E  E  E  E  E     Q    E  E  E  E  E  E
--------------------------|-------------------------|
--------------------------|-------------------------|
--------------------------|-------------------------|
--7--7--7--7--7--5--5-----|-------------------------|
-----------------------6--|--3----3--3--3--3--3--3--|


  E  E  E  E  E  E  E  E     Q    E  E  E  E  E  E
--------------------------|-------------------------|
--------------------------|-------------------------|
--------------------------|-------------------------|
--------------------------|--7----7--7--7--7--7--7--|
--3--5--5--5--5--5--5--5--|-------------------------|


  E  E  E  E  E  E  E  E     Q    E  E  E  E  E  E
--------------------------|-------------------------|
--------------------------|-------------------------|
--------------------------|-------------------------|
--7--7--7--7--7--5--5-----|-------------------------|
-----------------------6--|--3----3--3--3--3--3--3--|


  E  E  E  E  E  E  E  E     Q    E  E  E  E  E  E
--------------------------|-------------------------|
--------------------------|-------------------------|
--------------------------|-------------------------|
--------------------------|--7----7--7--7--7--7--7--|
--3--5--5--5--5--5--5--5--|-------------------------|


  E  E  E  E  E  E  E  E     Q    E  E  E  E  E  E
--------------------------|-------------------------|
--------------------------|-------------------------|
--------------------------|-------------------------|
--7--7--7--7--7--5--5-----|-------------------------|
-----------------------6--|--3----3--3--3--3--3--3--|


  E  E  E  E  E  E  E  E       E  E  Q    Q    E  E
--------------------------||-------------------------|
--------------------------||*------------------------|
--------------------------||-------------------------|
--------------------------||*--5--7-------7----------|
--5--5--5--5--6--6--6--6--||---------0---------0--0--|


  E  E  E  E  E  E  E  E   3x  E  E  Q    Q    E  E
---------------------------||------------------------|
--------------------------*||------------------------|
--------------5--5--5------||------------------------|
-----7--------------------*||--5--7-------7----------|
--0-----0--0-----------0---||--------0---------0--0--|


  E  E  E  E  E  E  E  E       E  E  Q    Q    Q
--------------------------||------------------------|
--------------------------||*-----------------------|
--------------5--5--5-----||------------------------|
-----7--------------------||*--7--7--7----7----7----|
--0-----0--0-----------0--||------------------------|


  E  E  Q     E   E   Q     3x  E  E  Q    Q    E  E
----------------------------||------------------------|
---------------------------*||------------------------|
----------------------------||------------------------|
--7--7--7----10--10--10----*||--7--7--7----7----7--7--|
----------------------------||------------------------|


  E  E  Q    H             E   E  Q    Q    E  E
----------------------||--------------------------|
----------------------||*-------------------------|
----------------------||--------------------------|
--7--7----------------||*--5s--7--7----7----7--7--|
----------------------||--------------------------|


  E  E  E  E  E  E  E  E     Q    Q    Q    Q
--------------------------|-----------------------|
--------------------------|-----------------------|
--------------------------|-----------------------|
--7--8--8--8--8--7--5--3--|-----------------------|
--------------------------|--3----3----3----3s----|


  E  E  E  E   E  E  E  E     E   E  Q    Q    E  E
---------------------------|-------------------------|
---------------------------|-------------------------|
---------------------------|-------------------------|
---------------------------|--5s--7--7----7----7--7--|
--5--5--5--5s--6--6--6--6--|-------------------------|


  E  E  E  E  E  E  E  E     Q    Q    Q    Q
--------------------------|-----------------------|
--------------------------|-----------------------|
--------------------------|-----------------------|
--7--8--8--8--8--7--5--3--|-----------------------|
--------------------------|--3----3----3----3s----|


  E  E  E  E   E  E  E  E     E   E  Q    Q    E  E
---------------------------|-------------------------|
---------------------------|-------------------------|
---------------------------|-------------------------|
---------------------------|--5s--7--7----7----7--7--|
--5--5--5--5s--6--6--6--6--|-------------------------|


  E  E  E  E  E  E  E  E     Q    Q    Q    Q
--------------------------|-----------------------|
--------------------------|-----------------------|
--------------------------|-----------------------|
--7--8--8--8--8--7--5--3--|-----------------------|
--------------------------|--3----3----3----3s----|


  E  E  E  E   E  E  E  E     E   E  Q    Q    E  E
---------------------------|-------------------------|
---------------------------|-------------------------|
---------------------------|-------------------------|
---------------------------|--5s--7--7----7----7--7--|
--5--5--5--5s--6--6--6--6--|-------------------------|


  E  E  E  E  E  E  E  E     Q    Q    Q    Q
--------------------------|-----------------------|
--------------------------|-----------------------|
--------------------------|-----------------------|
--7--8--8--8--8--7--5--3--|-----------------------|
--------------------------|--3----3----3----3s----|


  E  E  E  E   E  E  E  E       Q    Q    Q    Q
---------------------------||-----------------------|
---------------------------||*----------------------|
---------------------------||-----------------------|
---------------------------||*----------------------|
--5--5--5--5s--6--6--6--6--||---0----0----0----0----|


  E  E  E  E  E  E  E   E     Q    Q    Q    Q
---------------------------|----------------------|
---------------------------|----------------------|
---------------------------|----------------------|
---------------------------|----------------------|
--0--1--1--1--1--0--0s--L--|--5----5----5----5----|


  E  E  E  E  E  E  E  E     Q    Q    Q    Q
--------------------------|----------------------|
--------------------------|----------------------|
--------------------------|----------------------|
--------------------------|----------------------|
--5--6--6--6--5--5--3--3--|--0----0----0----0----|


  E  E  E  E  E  E  E   E     Q    Q    Q    Q
---------------------------|----------------------|
---------------------------|----------------------|
---------------------------|----------------------|
---------------------------|----------------------|
--0--1--1--1--1--0--0s--L--|--5----5----5----5----|


  E  E  E  E  E  E  E  E       W                   W
---------------------------||-------------------|-------------------|
--------------------------*||-------------------|-------------------|
---------------------------||-------------------|-------------------|
--------------------------*||-------------------|-------------------|
--5--6--6--6--5--5--3--3---||--0----------------|--L----------------|


  W                   W                   E  H        E  Q
-------------------|-------------------|----------------------|
-------------------|-------------------|--7--9--------L--L----|
-------------------|-------------------|----------------------|
-------------------|-------------------|----------------------|
--L----------------|--L----------------|----------------------|


  Q.     E  E   E  E   E     W                   H        Q    E  E
--------------------------|-------------------|----------------------|
--L------x--7s--4--2s--4--|-------------------|----------------------|
--------------------------|--2----------------|--L--------L----------|
--------------------------|-------------------|----------------2--5--|
--------------------------|-------------------|----------------------|


  W                   H        Q    E  E     H        Q    E  E
-------------------|----------------------|--4--------4----------|
-------------------|----------------4--7--|----------------4--7--|
--2----------------|--L--------L----------|----------------------|
-------------------|----------------------|----------------------|
-------------------|----------------------|----------------------|


  E   E  E   E  E   E  E   E     W
--4h--6--6s--7--7s--4--2s--4--|-------------------|
------------------------------|-------------------|
------------------------------|--2----------------|
------------------------------|-------------------|
------------------------------|-------------------|


  H        Q    E  E     H        Q    E  E
----------------------|----------------------|
----------------------|----------------4--7--|
--L--------L----------|----------------------|
----------------------|--3--------L----------|
----------------2--5--|----------------------|


  Q    E  E  E  E  E  E     E   Q    E  Q    Q
--4----L-----6-----4--2--|--2s--4----L------------|
----------4-----7--------|------------------------|
-------------------------|--------------2----L----|
-------------------------|------------------------|
-------------------------|------------------------|


  H        Q    E  E     H        Q    Q
----------------------|---------------------|
----------------------|---------------------|
--L--------L----------|---------------------|
----------------------|--3--------L----L----|
----------------2--5--|---------------------|


  H        E  E   E   E      E  H        Q    E     W
--------------------------|----------------------|-------------------|
--------------7s--9s--7s--|--9-----------L----L--|--L----------------|
--------------------------|----------------------|-------------------|
--L--------L--------------|----------------------|-------------------|
--------------------------|----------------------|-------------------|


  W                   W                   Q    Q    Q    Q
-------------------|-------------------|----------------------|
--L----------------|--L----------------|----------------------|
-------------------|-------------------|----------------------|
-------------------|-------------------|--7----7----7----7----|
-------------------|-------------------|----------------------|


  E   E   E   E   E   E  E   E     Q    Q    Q    Q
--------------------------------|----------------------|
--------------------------------|----------------------|
--------------------------------|----------------------|
--7--10--10--10--10s--9--9s--2--|--3----3----3----3----|
--------------------------------|----------------------|


  E  E  E  E  E  E  E  E     Q    Q    Q    Q
--------------------------|----------------------|
--------------------------|----------------------|
--------------------------|----------------------|
--3--0--0--0--0--0--0--3--|--7----7----7----7----|
--------------------------|----------------------|


  E   E   E   E   E   E  E   E     Q    Q    Q    Q
--------------------------------|----------------------|
--------------------------------|----------------------|
--------------------------------|----------------------|
--7--10--10--10--10s--9--9s--2--|--3----3----3----3----|
--------------------------------|----------------------|


  E  E  E  E  E  E  E  E     Q    Q    Q    Q
--------------------------|----------------------|
--------------------------|----------------------|
--------------------------|----------------------|
--3--0--0--0--0--0--0--3--|--7----7----7----7----|
--------------------------|----------------------|


  E   E   E   E   E   E  E   E     Q    Q    Q    Q
--------------------------------|----------------------|
--------------------------------|----------------------|
--------------------------------|----------------------|
--7--10--10--10--10s--9--9s--2--|--3----3----3----3----|
--------------------------------|----------------------|


  E  E  E  E  E  E  E  E     Q    Q    Q    Q
--------------------------|----------------------|
--------------------------|----------------------|
--------------------------|----------------------|
--3--0--0--0--0--0--0--3--|--7----7----7----7----|
--------------------------|----------------------|


  E   E   E   E   E   E  E   E     Q    Q    Q    Q
--------------------------------|----------------------|
--------------------------------|----------------------|
--------------------------------|----------------------|
--7--10--10--10--10s--9--9s--2--|--3----3----3----3----|
--------------------------------|----------------------|


  E  E  E  E  E  E  E  E       E  E  Q    Q    E  E
--------------------------||-------------------------|
--------------------------||*------------------------|
--------------------------||-------------------------|
--3--0--0--0--0--0--0--3--||*--5--7-------7----------|
--------------------------||---------0---------0--0--|


  E  E  E  E  E  E  E  E   4x   E  E  Q    Q    Q
---------------------------||------------------------|
--------------------------*||*-----------------------|
--------------5--5--5------||------------------------|
-----7--------------------*||*--7--7--7----7----7----|
--0-----0--0-----------0---||------------------------|


  E  E  Q     E   E   Q     3x  E  E  Q    Q    Q
----------------------------||-----------------------|
---------------------------*||-----------------------|
----------------------------||-----------------------|
--7--7--7----10--10--10----*||--7--7--7----7----7----|
----------------------------||-----------------------|


  E  E  Q     E   E   Q       W                   W
---------------------------|-------------------|-------------------|
---------------------------|-------------------|-------------------|
---------------------------|-------------------|-------------------|
--7--7--7----10--10--10----|-------------------|-------------------|
---------------------------|--0----------------|--L----------------|


  W                   W                   W
-------------------|-------------------|-------------------|
-------------------|-------------------|-------------------|
-------------------|-------------------|-------------------|
-------------------|-------------------|-------------------|
--L----------------|--L----------------|--L----------------|


  W
-------------------|-------------------|-------------------|
-------------------|-------------------|-------------------|
-------------------|-------------------|-------------------|
-------------------|-------------------|-------------------|
--L----------------|-------------------|-------------------|


-------------------|-------------------|-------------------|
-------------------|-------------------|-------------------|
-------------------|-------------------|-------------------|
-------------------|-------------------|-------------------|
-------------------|-------------------|-------------------|


-------------------||
-------------------||
-------------------||
-------------------||
-------------------||


NOTA:

Espero y te ayude en algo esta tab.

Si necesitas una tab en especial, escríbeme o visita...


Revisa la afinación¡ para esta canción


Duration Legend
---------------
W - whole
H - half
Q - quarter
E - 8th
S - 16th
T - 32nd
X - 64th
. - note dotted
|-n-|  - n-tuplets


Tablature Legend
----------------
L - tied note
x - dead note
g - grace note
(n) - ghost note
> - accentuded note
NH - natural harmonic
AH - artificial harmonic
TH - tapped harmonic
SH - semi harmonic
PH - pitch harmonic
h - hammer on
p - pull off
b - bend
br - bendRelease
pb - preBend
pbr - preBendRelease
brb - bendReleaseBend
n/ - tremolo bar dip
n - tremolo bar dive
-/n - tremolo bar Release up
/n - tremolo bar inverted dip
/n - tremolo bar return
-n - tremolo bar Release down
S - shift slide
s - legato slide
/ -  slide into from below or out of upwards
 -  slide into from above or out of downwards
~ - vibrato
W - wide vibrato
tr - trill
TP - tremolo picking
T - tapping
S - slap
P - pop
< - fade in
^ - brush up
v - brush down
Suggest correction
Creating personal tab
Creating personal tab
You can edit any tab online and save it as your Personal.

You can edit, replace or remove any tab part or add personal notes – all changes will be seen only by you.

Personal tabs can be accessed anytime from any device, even offline.
Learn more »
Give kudos to tab author, rate the tab!
1 2 3 4 5
comments
print report bad tab
guest
Wanna post a correction for this tab? Suggest correction