Oops, an error
Loading. Please wait.

Limítate tab

version 3
version 3

Whole song

Interactive

by Hamlet
23 views 1 this week
no commentswrite comment
1 2 3 4 5
3 more votes to show rating
add to favorites
×
Save as Personal and add changes to this tab that will be seen only by you. Learn more ›
×
You can save this tab as Personal to edit and correct it or add notes. All changes will be seen only by you. Learn more »
launch autoscroll
font size
0
reset
how to read this tab
guitar tuner
edit
Autoscroll
slow
fast
+/-
esc
set tempo
stop
NOTA:

(ME ENCANTA ESTA CANCIÓN Y SU LETRA)

Espero y te ayude en algo esta tab.

Si necesitas una tab en especial, escríbeme o visita...


- Revisa la afinación de esta canción en especial
- Pon atención a las instrucciones que están al final
- contiene las 2 guitarras y letra

- CALIFICA SOLO SI LEÍSTE "EL MANUAL"-

---------------------------GUITARRA 1---------------------------


       E  E  Q    Q    E  E     E  E  E  E  E  E  E  E   3x
C ||-------------------------|---------------------------||
G ||-------------------------|---------------------------||
D#||*------------------------|--------------------------*||
A#||*------------------------|--------------3--3--3-----*||
F ||---3--5-------5----------|-----5---------------------||
A#||---------0---------0--0--|--0-----0--0-----------0---||


  E  E  Q    Q    E  E     E  E  E  E  E  E  E  E
------------------------|--------------------------|
------------------------|--------------------------|
------------------------|--------------------------|
------------------------|--------------3--3--3-----|
--3--5-------5----------|-----5--------------------|
--------0---------0--0--|--0-----0--0-----------0--|


    E  E  Q    Q    E  E     E  E  E  E  E  E  E  E   3x
|-------------------------|---------------------------||
|-------------------------|---------------------------||
|*------------------------|--------------------------*||
|*------------------------|--------------3--3--3-----*||
|---3--5-------5----------|-----5---------------------||
|---------0---------0--0--|--0-----0--0-----------0---||


  E  E  Q    Q    E  E     E  E  E  E  E  E  E  E
------------------------|--------------------------|
------------------------|--------------------------|
------------------------|--------------------------|
------------------------|--------------3--3--3-----|
--3--5-------5----------|-----5--------------------|
--------0---------0--0--|--0-----0--0-----------0--|


     Q      Q      Q      E    E
|----------------------------------|
|----------------------------------|
|*--(7)----(7)----(7)----(7)--(7)--|
|*---7------7------7------7----7---|
|----5------5------5------5----5---|
|----------------------------------|


   E    E    E    E     E   E   E   E   4x  W
----------------------------------------||-------------------|
----------------------------------------||-------------------|
--(7)--(7)--(7)--(7)s--10--10--10--10--*||-------------------|
---7----7----7----7s---10--10--10--10--*||-------------------|
---5----5----5----5s----8---8---8---8---||--5----------------|
----------------------------------------||-------------------|


  W                   W                   W
-------------------|-------------------|-------------------|
-------------------|-------------------|-------------------|
-------------------|-------------------|-------------------|
-------------------|-------------------|-------------------|
--L----------------|--L----------------|--L----------------|
-------------------|-------------------|-------------------|


-------------------|-------------------|-------------------|
-------------------|-------------------|-------------------|
-------------------|-------------------|-------------------|
-------------------|-------------------|-------------------|
-------------------|-------------------|-------------------|
-------------------|-------------------|-------------------|


                           PM PM PM PM PM PM
                      Q    E  E  E  E  E  E
-------------------|-------------------------|
-------------------|-------------------------|
-------------------|-------------------------|
-------------------|-------------------------|
-------------------|--5----5--5--5--5--5--5--|
-------------------|-------------------------|


  PM PM PM PM PM       PM    PM   PM PM PM PM PM PM
  E  E  E  E  E  E  E  E     Q    E  E  E  E  E  E
--------------------------|-------------------------|
--------------------------|-------------------------|
--------------------------|-------------------------|
--------------------------|-------------------------|
--5--5--5--5--5--3--3-----|-------------------------|
-----------------------6--|--3----3--3--3--3--3--3--|


  PM PM PM PM PM PM PM PM         PM PM PM PM PM PM
  E  E  E  E  E  E  E  E     Q    E  E  E  E  E  E
--------------------------|-------------------------|
--------------------------|-------------------------|
--------------------------|-------------------------|
--------------------------|-------------------------|
--------------------------|--5----5--5--5--5--5--5--|
--5--5--5--5--5--5--5--5--|-------------------------|


  PM PM PM PM PM       PM    PM   PM PM PM PM PM PM
  E  E  E  E  E  E  E  E     Q    E  E  E  E  E  E
--------------------------|-------------------------|
--------------------------|-------------------------|
--------------------------|-------------------------|
--------------------------|-------------------------|
--5--5--5--5--5--3--3-----|-------------------------|
-----------------------6--|--3----3--3--3--3--3--3--|


  PM PM PM PM PM PM PM PM         PM PM PM PM PM PM
  E  E  E  E  E  E  E  E     Q    E  E  E  E  E  E
--------------------------|-------------------------|
--------------------------|-------------------------|
--------------------------|-------------------------|
--------------------------|-------------------------|
--------------------------|--5----5--5--5--5--5--5--|
--5--5--5--5--5--5--5--5--|-------------------------|


  PM PM PM PM PM       PM    PM   PM PM PM PM PM PM
  E  E  E  E  E  E  E  E     Q    E  E  E  E  E  E
--------------------------|-------------------------|
--------------------------|-------------------------|
--------------------------|-------------------------|
--------------------------|-------------------------|
--5--5--5--5--5--3--3-----|-------------------------|
-----------------------6--|--3----3--3--3--3--3--3--|


  PM PM PM PM PM PM PM PM
  E  E  E  E  E  E  E  E     Q    E  E  E  E  E  E
--------------------------|-------------------------|
--------------------------|-------------------------|
--------------------------|-------------------------|
--------------------------|-------------------------|
--------------------------|--5----5--5--5--5--5--5--|
--5--5--5--5--5--5--5--5--|-------------------------|


  E  E  E  E  E  E  E  E     Q    E  E  E  E  E  E
--------------------------|-------------------------|
--------------------------|-------------------------|
--------------------------|-------------------------|
--------------------------|-------------------------|
--5--5--5--5--5--3--3-----|-------------------------|
-----------------------6--|--3----3--3--3--3--3--3--|


  E  E  E  E  E  E  E  E       E  E  Q    Q    E  E
--------------------------||-------------------------|
--------------------------||-------------------------|
--------------------------||*------------------------|
--------------------------||*------------------------|
--------------------------||---3--5-------5----------|
--5--5--5--5--6--6--6--6--||---------0---------0--0--|


  E  E  E  E  E  E  E  E   3x  E  E  Q    Q    E  E
---------------------------||------------------------|
---------------------------||------------------------|
--------------------------*||------------------------|
--------------3--3--3-----*||------------------------|
-----5---------------------||--3--5-------5----------|
--0-----0--0-----------0---||--------0---------0--0--|


  E  E  E  E  E  E  E  E        Q      Q      Q      E    E
--------------------------||----------------------------------|
--------------------------||----------------------------------|
--------------------------||*--(7)----(7)----(7)----(7)--(7)--|
--------------3--3--3-----||*---7------7------7------7----7---|
-----5--------------------||----5------5------5------5----5---|
--0-----0--0-----------0--||----------------------------------|


   E    E    E    E     E   E   E   E   3x  E  E  Q    Q    E  E
----------------------------------------||------------------------|
----------------------------------------||------------------------|
--(7)--(7)--(7)--(7)s--10--10--10--10--*||--7--7--7----7----7--7--|
---7----7----7----7s---10--10--10--10--*||--7--7--7----7----7--7--|
---5----5----5----5s----8---8---8---8---||--5--5--5----5----5--5--|
----------------------------------------||------------------------|


  E  E  H        Q         E   E  Q    Q    E  E
----------------------||--------------------------|
----------------------||--------------------------|
--7--7----------------||*-------------------------|
--7--7----------------||*--5s--7--7----7----7--7--|
--5--5----------------||---3s--5--5----5----5--5--|
----------------------||--------------------------|


  E  E  E  E  E   E   E  E     Q    Q    Q    Q
----------------------------|-----------------------|
----------------------------|-----------------------|
----------------------------|-----------------------|
--7--8--8--8--8s--7---5--0--|-----------------------|
--5--6--6--6--6s--5s--3--0--|--3----3----3----3s----|
----------------------------|--3----3----3----3s----|


  E  E  E  E   E  E  E  E     E   E  Q    Q    E  E
---------------------------|-------------------------|
---------------------------|-------------------------|
---------------------------|-------------------------|
---------------------------|--5s--7--7----7----7--7--|
--5--5--5--5s--6--6--6--6--|--3s--5--5----5----5--5--|
--5--5--5--5s--6--6--6--6--|-------------------------|


  E  E  E  E  E   E   E  E     Q    Q    Q    Q
----------------------------|-----------------------|
----------------------------|-----------------------|
----------------------------|-----------------------|
--7--8--8--8--8s--7---5--0--|-----------------------|
--5--6--6--6--6s--5s--3--0--|--3----3----3----3s----|
----------------------------|--3----3----3----3s----|


  E  E  E  E   E  E  E  E     E   E  Q    Q    E  E
---------------------------|-------------------------|
---------------------------|-------------------------|
---------------------------|-------------------------|
---------------------------|--5s--7--7----7----7--7--|
--5--5--5--5s--6--6--6--6--|--3s--5--5----5----5--5--|
--5--5--5--5s--6--6--6--6--|-------------------------|


  E  E  E  E  E   E   E  E     Q    Q    Q    Q
----------------------------|-----------------------|
----------------------------|-----------------------|
----------------------------|-----------------------|
--7--8--8--8--8s--7---5--0--|-----------------------|
--5--6--6--6--6s--5s--3--0--|--3----3----3----3s----|
----------------------------|--3----3----3----3s----|


  E  E  E  E   E  E  E  E     E   E  Q    Q    E  E
---------------------------|-------------------------|
---------------------------|-------------------------|
---------------------------|-------------------------|
---------------------------|--5s--7--7----7----7--7--|
--5--5--5--5s--6--6--6--6--|--3s--5--5----5----5--5--|
--5--5--5--5s--6--6--6--6--|-------------------------|


  E  E  E  E  E   E   E  E     Q    Q    Q    Q
----------------------------|-----------------------|
----------------------------|-----------------------|
----------------------------|-----------------------|
--7--8--8--8--8s--7---5--0--|-----------------------|
--5--6--6--6--6s--5s--3--0--|--3----3----3----3s----|
----------------------------|--3----3----3----3s----|


  E  E  E  E   E  E  E  E       Q    Q    Q    Q
---------------------------||-----------------------|
---------------------------||-----------------------|
---------------------------||*----------------------|
---------------------------||*----------------------|
--5--5--5--5s--6--6--6--6--||-----------------------|
--5--5--5--5s--6--6--6--6--||---0----0----0----0----|


  E  E  E  E  E  E  E   E     Q    Q    Q    Q
---------------------------|----------------------|
---------------------------|----------------------|
---------------------------|----------------------|
---------------------------|----------------------|
---------------------------|----------------------|
--0--1--1--1--1--0--0s--L--|--5----5----5----5----|


  E  E  E  E  E  E  E  E     Q    Q    Q    Q
--------------------------|----------------------|
--------------------------|----------------------|
--------------------------|----------------------|
--------------------------|----------------------|
--------------------------|----------------------|
--5--6--6--6--5--5--3--3--|--0----0----0----0----|


  E  E  E  E  E  E  E   E     Q    Q    Q    Q
---------------------------|----------------------|
---------------------------|----------------------|
---------------------------|----------------------|
---------------------------|----------------------|
---------------------------|----------------------|
--0--1--1--1--1--0--0s--L--|--5----5----5----5----|


  E  E  E  E  E  E  E  E       W                   W
---------------------------||-------------------|-------------------|
---------------------------||-------------------|-------------------|
--------------------------*||-------------------|-------------------|
--------------------------*||-------------------|-------------------|
---------------------------||-------------------|-------------------|
--5--6--6--6--5--5--3--3---||--0----------------|--L----------------|


  W                   W                   W
-------------------|-------------------|-------------------|
-------------------|-------------------|-------------------|
-------------------|-------------------|-------------------|
-------------------|-------------------|-------------------|
-------------------|-------------------|-------------------|
--L----------------|--L----------------|--L----------------|


  W                   W                   H        Q    E  E
-------------------|-------------------|-----------------------|
-------------------|-------------------|-----------------------|
-------------------|-------------------|-----------------------|
-------------------|-------------------|-----------------------|
-------------------|-------------------|-------------------0s--|
--L----------------|--L----------------|-----------------------|


  Q    Q    Q    E   E      E  E  E  E  E   E  E   E
-------------------------|----------------------------|
-------------------------|----------------------------|
-------------------------|----------------------------|
-------------------------|----------------------------|
--5----5----5----5--(5)--|--5--8--8--8--8s--7--7s--5--|
-------------------------|----------------------------|


  Q    Q    Q    Q       E   E   E   E   E   E   E  E
----------------------|--------------------------------|
----------------------|--------------------------------|
----------------------|--------------------------------|
----------------------|--------------------------------|
--1----1----1----1----|--1--(0)--0--(0)--0--(0)--0--3--|
----------------------|--------------------------------|


  Q    Q    Q    E   E      E  E  E  E  E   E  E   E
-------------------------|----------------------------|
-------------------------|----------------------------|
-------------------------|----------------------------|
-------------------------|----------------------------|
--5----5----5----5--(5)--|--5--8--8--8--8s--7--7s--5--|
-------------------------|----------------------------|


  Q    Q    Q    Q       E   E   E   E   E   E   E   E
----------------------|---------------------------------|
----------------------|---------------------------------|
----------------------|---------------------------------|
----------------------|---------------------------------|
--1----1----1----1----|--1/-----------------------------|
----------------------|------5--(5)--5--(5)--5--(5)--5--|


  Q    Q    Q    E   E      E  E  E  E  E   E  E   E
-------------------------|----------------------------|
-------------------------|----------------------------|
-------------------------|----------------------------|
-------------------------|----------------------------|
--5----5----5----5--(5)--|--5--8--8--8--8s--7--7s--5--|
-------------------------|----------------------------|


  Q    Q    Q    Q       E  E  E  E  E   E   E  E
----------------------|----------------------------|
----------------------|----------------------------|
----------------------|----------------------------|
----------------------|----------------------------|
--1----1----1----1----|--1--0--0--0--0--(0)--0--3--|
----------------------|----------------------------|


  Q    Q    Q    E   E      E  E  E  E  E   E  E   E
-------------------------|----------------------------|
-------------------------|----------------------------|
-------------------------|----------------------------|
-------------------------|----------------------------|
--5----5----5----5--(5)--|--5--8--8--8--8s--7--7s--5--|
-------------------------|----------------------------|


  Q    Q    Q    Q       E   E   E   E   E   E   E   E
----------------------|---------------------------------|
----------------------|---------------------------------|
----------------------|---------------------------------|
----------------------|---------------------------------|
--1----1----1----1----|--1/--5---5---5---5---5---5---5--|
----------------------|------5--(5)--5--(5)--5--(5)--5--|


  Q    Q    Q    E  E     E   E   E   E   E   E  E   E
-----------------------|--------------------------------|
-----------------------|--------------------------------|
-----------------------|--------------------------------|
--7----7----7----7--7--|--7--10--10--10--10s--9--9s--7--|
--5----5----5----5--5--|--5---8---8---8---8s--7--7s--5--|
-----------------------|--------------------------------|


  Q    Q    Q    Q       E  E  E  E  E  E  E  E
----------------------|--------------------------|
----------------------|--------------------------|
----------------------|--------------------------|
--3----3----3----3----|--3--2--2--2--2--2--2--5--|
--1----1----1----1----|--1--0--0--0--0--0--0--3--|
----------------------|--------------------------|


  Q    Q    Q    E  E     E   E   E   E   E   E  E   E
-----------------------|--------------------------------|
-----------------------|--------------------------------|
-----------------------|--------------------------------|
--7----7----7----7--7--|--7--10--10--10--10s--9--9s--7--|
--5----5----5----5--5--|--5---8---8---8---8s--7--7s--5--|
-----------------------|--------------------------------|


  Q    Q    Q    Q       E   E   E   E   E   E   E   E
----------------------|---------------------------------|
----------------------|---------------------------------|
----------------------|---------------------------------|
--3----3----3----3----|---------------------------------|
--1----1----1----1----|--1/-----------------------------|
----------------------|------5--(5)--5--(5)--5--(5)--5--|


  Q    Q    Q    E  E     E   E   E   E   E   E  E   E
-----------------------|--------------------------------|
-----------------------|--------------------------------|
-----------------------|--------------------------------|
--7----7----7----7--7--|--7--10--10--10--10s--9--9s--7--|
--5----5----5----5--5--|--5---8---8---8---8s--7--7s--5--|
-----------------------|--------------------------------|


  Q    Q    Q    Q       E  E  E  E  E  E  E  E
----------------------|--------------------------|
----------------------|--------------------------|
----------------------|--------------------------|
--3----3----3----3----|--3--2--2--2--2--2--2--5--|
--1----1----1----1----|--1--0--0--0--0--0--0--3--|
----------------------|--------------------------|


  Q    Q    Q    E  E     E   E   E   E   E   E  E   E
-----------------------|--------------------------------|
-----------------------|--------------------------------|
-----------------------|--------------------------------|
--7----7----7----7--7--|--7--10--10--10--10s--9--9s--7--|
--5----5----5----5--5--|--5---8---8---8---8s--7--7s--5--|
-----------------------|--------------------------------|


  Q    Q    Q    Q       E   E   E   E   E   E   E   E
----------------------|---------------------------------|
----------------------|---------------------------------|
----------------------|---------------------------------|
--3----3----3----3----|---------------------------------|
--1----1----1----1----|--1/-----------------------------|
----------------------|------5--(5)--5--(5)--5--(5)--5--|


    E  E  Q    Q    E  E     E  E  E  E  E  E  E  E   4x
|-------------------------|---------------------------||
|-------------------------|---------------------------||
|*------------------------|--------------------------*||
|*------------------------|--------------3--3--3-----*||
|---3--5-------5----------|-----5---------------------||
|---------0---------0--0--|--0-----0--0-----------0---||


    Q      Q      Q      E    E
----------------------------------|
----------------------------------|
*--(7)----(7)----(7)----(7)--(7)--|
*---7------7------7------7----7---|
----5------5------5------5----5---|
----------------------------------|


   E    E    E    E     E   E   E   E   3x
----------------------------------------||
----------------------------------------||
--(7)--(7)--(7)--(7)s--10--10--10--10--*||
---7----7----7----7s---10--10--10--10--*||
---5----5----5----5s----8---8---8---8---||
----------------------------------------||


   Q      Q      Q      E    E
---------------------------------|
---------------------------------|
--(7)----(7)----(7)----(7)--(7)--|
---7------7------7------7----7---|
---5------5------5------5----5---|
---------------------------------|


   E    E    E    E     E   E   E   E     E  E  Q    Q    E  E
---------------------------------------|------------------------|
---------------------------------------|------------------------|
--(7)--(7)--(7)--(7)s--10--10--10--10--|------------------------|
---7----7----7----7s---10--10--10--10--|------------------------|
---5----5----5----5s----8---8---8---8--|--3--5-------5----------|
---------------------------------------|--------0---------0--0--|


  E  E  E  E  E  E  E  E     E  E  Q    Q    E  E
--------------------------|------------------------|
--------------------------|------------------------|
--------------------------|------------------------|
--------------3--3--3-----|------------------------|
-----5--------------------|--3--5-------5----------|
--0-----0--0-----------0--|--------0---------0--0--|


  E  E  E  E  E  E  E  E     E  E  Q    Q    E  E
--------------------------|------------------------|
--------------------------|------------------------|
--------------------------|------------------------|
--------------3--3--3-----|------------------------|
-----5--------------------|--3--5-------5----------|
--0-----0--0-----------0--|--------0---------0--0--|


  E  E  E  E  E  E  E  E     E  E  Q    Q    E  E
--------------------------|------------------------|
--------------------------|------------------------|
--------------------------|------------------------|
--------------3--3--3-----|------------------------|
-----5--------------------|--3--5-------5----------|
--0-----0--0-----------0--|--------0---------0--0--|


  E  E  E  E  E  E  E  E     E  E  Q    Q    E  E
--------------------------|------------------------|
--------------------------|------------------------|
--------------------------|------------------------|
--------------3--3--3-----|------------------------|
-----5--------------------|--3--5-------5----------|
--0-----0--0-----------0--|--------0---------0--0--|


  E  E  E  E  E  E  E  E     W                   W
--------------------------|-------------------|-------------------||
--------------------------|-------------------|-------------------||
--------------------------|-------------------|-------------------||
--------------3--3--3--3--|--L----------------|--L----------------||
-----5--------------------|-------------------|-------------------||
--0-----0--0--------------|-------------------|-------------------||


Duration Legend
---------------
W - whole
H - half
Q - quarter
E - 8th
S - 16th
T - 32nd
X - 64th
. - note dotted
|-n-|  - n-tuplets


Tablature Legend
----------------
L - tied note
x - dead note
g - grace note
(n) - ghost note
> - accentuded note
NH - natural harmonic
AH - artificial harmonic
TH - tapped harmonic
SH - semi harmonic
PH - pitch harmonic
h - hammer on
p - pull off
b - bend
br - bendRelease
pb - preBend
pbr - preBendRelease
brb - bendReleaseBend
n/ - tremolo bar dip
n - tremolo bar dive
-/n - tremolo bar Release up
/n - tremolo bar inverted dip
/n - tremolo bar return
-n - tremolo bar Release down
S - shift slide
s - legato slide
/ -  slide into from below or out of upwards
 -  slide into from above or out of downwards
~ - vibrato
W - wide vibrato
tr - trill
TP - tremolo picking
T - tapping
S - slap
P - pop
< - fade in
^ - brush up
v - brush down


NOTA:

Espero y te ayude en algo esta tab.

Si necesitas una tab en especial, escríbeme o visita...


- Revisa la afinación de esta canción en especial
- Pon atención a las instrucciones que están al final
- contiene las 2 guitarras y letra

- CALIFICA SOLO SI LEÍSTE "EL MANUAL"-

---------------------------GUITARRA 2---------------------------


                              Limitate


                     3x                    E  E  Q    Q    E  E
C ||--------|--------||-------|-------||-------------------------|
G ||--------|--------||-------|-------||-------------------------|
D#||*-------|-------*||-------|-------||*------------------------|
A#||*-------|-------*||-------|-------||*------------------------|
F ||--------|--------||-------|-------||---3--5-------5----------|
A#||--------|--------||-------|-------||---------0---------0--0--|


  E  E  E  E  E  E  E  E   3x  E  E  Q    Q    E  E
---------------------------||------------------------|
---------------------------||------------------------|
--------------------------*||------------------------|
--------------3--3--3-----*||------------------------|
-----5---------------------||--3--5-------5----------|
--0-----0--0-----------0---||--------0---------0--0--|


  E  E  E  E  E  E  E  E       Q    Q    Q    E  E
--------------------------||------------------------|
--------------------------||------------------------|
--------------------------||*-----------------------|
--------------3--3--3-----||*-----------------------|
-----5--------------------||---0----0----0----0--0--|
--0-----0--0-----------0--||---0----0----0----0--0--|


  E  E  E  E   E  E  E  E   4x  W                   W
----------------------------||-------------------|-------------------|
----------------------------||-------------------|-------------------|
---------------------------*||-------------------|-------------------|
---------------------------*||-------------------|-------------------|
--0--0--0--0s--3--3--3--3---||--5----------------|--L----------------|
--0--0--0--0s--3--3--3--3---||-------------------|-------------------|


  W                   W
-------------------|-------------------|-------|-------|-------|
-------------------|-------------------|-------|-------|-------|
-------------------|-------------------|-------|-------|-------|
-------------------|-------------------|-------|-------|-------|
--L----------------|--L----------------|-------|-------|-------|
-------------------|-------------------|-------|-------|-------|


-------|-------|-------|-------|-------|-------|-------|-------|
-------|-------|-------|-------|-------|-------|-------|-------|
-------|-------|-------|-------|-------|-------|-------|-------|
-------|-------|-------|-------|-------|-------|-------|-------|
-------|-------|-------|-------|-------|-------|-------|-------|
-------|-------|-------|-------|-------|-------|-------|-------|


               PM PM PM PM PM PM    PM PM PM PM PM       PM
          Q    E  E  E  E  E  E     E  E  E  E  E  E  E  E
-------|-------------------------|--------------------------|
-------|-------------------------|--------------------------|
-------|-------------------------|--------------------------|
-------|-------------------------|--------------------------|
-------|--5----5--5--5--5--5--5--|--5--5--5--5--5--3--3-----|
-------|-------------------------|-----------------------6--|


  PM   PM PM PM PM PM PM    PM PM PM PM PM PM PM PM
  Q    E  E  E  E  E  E     E  E  E  E  E  E  E  E
-------------------------|--------------------------|
-------------------------|--------------------------|
-------------------------|--------------------------|
-------------------------|--------------------------|
-------------------------|--------------------------|
--3----3--3--3--3--3--3--|--5--5--5--5--5--5--5--5--|


       PM PM PM PM PM PM    PM PM PM PM PM       PM
  Q    E  E  E  E  E  E     E  E  E  E  E  E  E  E
-------------------------|--------------------------|
-------------------------|--------------------------|
-------------------------|--------------------------|
-------------------------|--------------------------|
--5----5--5--5--5--5--5--|--5--5--5--5--5--3--3-----|
-------------------------|-----------------------6--|


  Q    E  E  E  E  E  E     E  E  E  E  E  E  E  E
-------------------------|--------------------------|
-------------------------|--------------------------|
-------------------------|--------------------------|
-------------------------|--------------------------|
-------------------------|--------------------------|
--3----3--3--3--3--3--3--|--5--5--5--5--6--6--6--6--|


    E  E  Q    Q    E  E     E  E  E  E  E  E  E  E   3x
|-------------------------|---------------------------||
|-------------------------|---------------------------||
|*------------------------|--------------------------*||
|*------------------------|--------------3--3--3-----*||
|---3--5-------5----------|-----5---------------------||
|---------0---------0--0--|--0-----0--0-----------0---||


  E  E  Q    Q    E  E     E  E  E  E  E  E  E  E
------------------------|--------------------------|
------------------------|--------------------------|
------------------------|--------------------------|
------------------------|--------------3--3--3-----|
--3--5-------5----------|-----5--------------------|
--------0---------0--0--|--0-----0--0-----------0--|


    Q    Q    Q    E  E     E  E  E  E  E   E  E  E   3x
|------------------------|----------------------------||
|------------------------|----------------------------||
|*-----------------------|---------------------------*||
|*-----------------------|---------------------------*||
|---0----0----0----0--0--|--0--0--0--0--3s--3--3--3---||
|---0----0----0----0--0--|--0--0--0--0--3s--3--3--3---||


  E  E  Q    Q    E  E     E  E  Q    H
------------------------|----------------------|
------------------------|----------------------|
------------------------|----------------------|
------------------------|----------------------|
--0--0--0----0----0--0--|--0--0----------------|
--0--0--0----0----0--0--|--0--0----------------|


    PM
    E  E  Q    Q    E  E     E  E  E  E  E  E  E  E
|-------------------------|--------------------------|
|-------------------------|--------------------------|
|*------------------------|--------------------------|
|*------------------------|--0--8--8--8--8--7--3--0--|
|---0--0--0----0----0--0--|--0--6--6--6--6--5--3--0--|
|---0--0--0----0----0--0--|--------------------------|


  Q    Q    Q    Q        E  E  E  E   E  E  E  E
-----------------------|---------------------------|
-----------------------|---------------------------|
-----------------------|---------------------------|
-----------------------|---------------------------|
--3----3----3----3s----|--5--5--5--5s--6--6--6--6--|
--3----3----3----3s----|--5--5--5--5s--6--6--6--6--|


  PM
  E  E  Q    Q    E  E     E  E  E  E  E  E  E  E
------------------------|--------------------------|
------------------------|--------------------------|
------------------------|--------------------------|
------------------------|--0--8--8--8--8--7--3--0--|
--0--0--0----0----0--0--|--0--6--6--6--6--5--3--0--|
--0--0--0----0----0--0--|--------------------------|


  Q    Q    Q    Q        E  E  E  E   E  E  E  E
-----------------------|---------------------------|
-----------------------|---------------------------|
-----------------------|---------------------------|
-----------------------|---------------------------|
--3----3----3----3s----|--5--5--5--5s--6--6--6--6--|
--3----3----3----3s----|--5--5--5--5s--6--6--6--6--|


  PM
  E  E  Q    Q    E  E     E  E  E  E  E  E  E  E
------------------------|--------------------------|
------------------------|--------------------------|
------------------------|--------------------------|
------------------------|--0--8--8--8--8--7--3--0--|
--0--0--0----0----0--0--|--0--6--6--6--6--5--3--0--|
--0--0--0----0----0--0--|--------------------------|


  Q    Q    Q    Q        E  E  E  E   E  E  E  E
-----------------------|---------------------------|
-----------------------|---------------------------|
-----------------------|---------------------------|
-----------------------|---------------------------|
--3----3----3----3s----|--5--5--5--5s--6--6--6--6--|
--3----3----3----3s----|--5--5--5--5s--6--6--6--6--|


  PM
  E  E  Q    Q    E  E     E  E  E  E  E  E  E  E
------------------------|--------------------------|
------------------------|--------------------------|
------------------------|--------------------------|
------------------------|--0--8--8--8--8--7--3--0--|
--0--0--0----0----0--0--|--0--6--6--6--6--5--3--0--|
--0--0--0----0----0--0--|--------------------------|


  Q    Q    Q    Q        E  E  E  E   E  E  E  E
-----------------------|---------------------------|
-----------------------|---------------------------|
-----------------------|---------------------------|
-----------------------|---------------------------|
--3----3----3----3s----|--5--5--5--5s--6--6--6--6--|
--3----3----3----3s----|--5--5--5--5s--6--6--6--6--|


    Q    Q    Q    Q       E  E  E  E  E  E  E   E
|-----------------------|---------------------------|
|-----------------------|---------------------------|
|*----------------------|---------------------------|
|*----------------------|---------------------------|
|---0----0----0----0----|--0--1--1--1--1--0--0s--L--|
|---0----0----0----0----|--0--1--1--1--1--0--0s--L--|


  Q    Q    Q    Q       E  E  E  E   E  E   E  E
----------------------|----------------------------|
----------------------|----------------------------|
----------------------|----------------------------|
----------------------|----------------------------|
--5----5----5----5----|--5--6--6--6s--5--5s--3--3--|
--5----5----5----5----|--5--6--6--6s--5--5s--3--3--|


  Q    Q    Q    Q       E  E  E  E  E  E  E   E
----------------------|---------------------------|
----------------------|---------------------------|
----------------------|---------------------------|
----------------------|---------------------------|
--0----0----0----0----|--0--1--1--1--1--0--0s--L--|
--0----0----0----0----|--0--1--1--1--1--0--0s--L--|


  Q    Q    Q    Q       E  E  E  E   E  E   E  E
----------------------|-----------------------------||
----------------------|-----------------------------||
----------------------|----------------------------*||
----------------------|----------------------------*||
--5----5----5----5----|--5--6--6--6s--5--5s--3--3---||
--5----5----5----5----|--5--6--6--6s--5--5s--3--3---||


  W                   W                   W
-------------------|-------------------|-------------------|
-------------------|-------------------|-------------------|
-------------------|-------------------|-------------------|
-------------------|-------------------|-------------------|
--0----------------|--L----------------|--L----------------|
--0----------------|--L----------------|--L----------------|


  W                   W                   W
-------------------|-------------------|-------------------|
-------------------|-------------------|-------------------|
-------------------|-------------------|-------------------|
-------------------|-------------------|-------------------|
--L----------------|--L----------------|--L----------------|
--L----------------|--L----------------|--L----------------|


  W                   W
-------------------|-------------------|-------------------|
-------------------|-------------------|-------------------|
-------------------|-------------------|-------------------|
-------------------|-------------------|-------------------|
--L----------------|--L----------------|-------------------|
--L----------------|--L----------------|-------------------|


-------------------|-------------------|-------------------|
-------------------|-------------------|-------------------|
-------------------|-------------------|-------------------|
-------------------|-------------------|-------------------|
-------------------|-------------------|-------------------|
-------------------|-------------------|-------------------|


-------------------|-------------------|-------------------|
-------------------|-------------------|-------------------|
-------------------|-------------------|-------------------|
-------------------|-------------------|-------------------|
-------------------|-------------------|-------------------|
-------------------|-------------------|-------------------|


  H        Q    E  E      W                   W
-----------------------|-------------------|-------------------|
-----------------------|-------------------|-------------------|
-----------------------|-------------------|-------------------|
-----------------------|-------------------|-------------------|
-------------------0s--|--5----------------|--L----------------|
-----------------------|-------------------|-------------------|


  W                   H        Q    E  E      W
-------------------|-----------------------|-------------------|
-------------------|-----------------------|-------------------|
-------------------|-----------------------|-------------------|
-------------------|-----------------------|-------------------|
--L----------------|--L--------L----L--0s--|--5----------------|
-------------------|-----------------------|-------------------|


  W                   Q    Q    Q    Q
-------------------|----------------------|
-------------------|----------------------|
-------------------|----------------------|
-------------------|----------------------|
--L----------------|--5----5----5----5----|
-------------------|--0----0----0----0----|


  E   E   E   E   E   E   E   E      Q    Q    Q    E  E
----------------------------------|-----------------------|
----------------------------------|-----------------------|
----------------------------------|-----------------------|
----------------------------------|--7----7----7----7--7--|
--5--(5)--5--(5)--5--(5)--5--(5)--|--5----5----5----5--5--|
--0---0---0---0---0---0---0---0---|--0----0----0----0--0--|


  E  E  E  E  E   E  E   E     Q    Q    Q    Q
----------------------------|----------------------|
----------------------------|----------------------|
----------------------------|--3----3----3----3----|
--7--8--8--8--8s--7--7s--0--|--3----3----3----3----|
--5--8--8--8--8s--7--7s--0--|--1----1----1----1----|
--0--8--8--8--8---7--7---0--|----------------------|


  E  E  E  E  E  E  E  E     Q    Q    Q    E  E
--------------------------|-----------------------|
--------------------------|-----------------------|
--3-----------------------|-----------------------|
--3-----------------------|--7----7----7----7--7--|
--1--0--0--0--0--0--0--3--|--5----5----5----5--5--|
-----0--0--0--0--0--0--3--|--0----0----0----0--0--|


  E  E  E  E  E   E  E   E     Q    Q    Q    Q
----------------------------|----------------------|
----------------------------|----------------------|
----------------------------|----------------------|
--7--8--8--8--8s--7--7s--0--|--3----3----3----3----|
--5--8--8--8--8s--7--7s--0--|--1----1----1----1----|
--0--8--8--8--8---7--7---0--|----------------------|


  E  E   E   E   E   E   E   E     Q    Q    Q    E  E
--------------------------------|-----------------------|
--------------------------------|-----------------------|
--------------------------------|-----------------------|
--3-----------------------------|--7----7----7----7--7--|
--1--5---5---5---5---5---5---5--|--5----5----5----5--5--|
-----5--(5)--5--(5)--5--(5)--5--|--0----0----0----0--0--|


  E  E  E  E  E   E  E   E     Q    Q    Q    Q
----------------------------|----------------------|
----------------------------|----------------------|
----------------------------|--3----3----3----3----|
--7--8--8--8--8s--7--7s--0--|--3----3----3----3----|
--5--8--8--8--8s--7--7s--0--|--1----1----1----1----|
--0--8--8--8--8---7--7---0--|----------------------|


  E  E  E  E  E  E  E  E     Q    Q    Q    E  E
--------------------------|-----------------------|
--------------------------|-----------------------|
--3-----------------------|-----------------------|
--3-----------------------|--7----7----7----7--7--|
--1--0--0--0--0--0--0--3--|--5----5----5----5--5--|
-----0--0--0--0--0--0--3--|--0----0----0----0--0--|


  E  E  E  E  E   E  E   E     Q    Q    Q    Q
----------------------------|----------------------|
----------------------------|----------------------|
----------------------------|----------------------|
--7--8--8--8--8s--7--7s--0--|--3----3----3----3----|
--5--8--8--8--8s--7--7s--0--|--1----1----1----1----|
--0--8--8--8--8---7--7---0--|----------------------|


  E  E   E   E   E   E   E   E       E  E  Q    Q    E  E
--------------------------------||-------------------------|
--------------------------------||-------------------------|
--------------------------------||*------------------------|
--3-----------------------------||*------------------------|
--1--5---5---5---5---5---5---5--||---3--5-------5----------|
-----5--(5)--5--(5)--5--(5)--5--||---------0---------0--0--|


  E  E  E  E  E  E  E  E   4x   Q    Q    Q    E  E
---------------------------||------------------------|
---------------------------||------------------------|
--------------------------*||*-----------------------|
--------------3--3--3-----*||*-----------------------|
-----5---------------------||---0----0----0----0--0--|
--0-----0--0-----------0---||---0----0----0----0--0--|


  E  E  E  E   E  E  E  E   3x  Q    Q    Q    E  E
----------------------------||-----------------------|
----------------------------||-----------------------|
---------------------------*||-----------------------|
---------------------------*||-----------------------|
--0--0--0--0s--3--3--3--3---||--0----0----0----0--0--|
--0--0--0--0s--3--3--3--3---||--0----0----0----0--0--|


  E  E  E  E   E  E  E  E     W                   W
---------------------------|-------------------|-------------------|
---------------------------|-------------------|-------------------|
---------------------------|--7----------------|--L----------------|
---------------------------|--7----------------|--L----------------|
--0--0--0--0s--3--3--3--3--|--5----------------|--L----------------|
--0--0--0--0s--3--3--3--3--|--0----------------|--L----------------|


  W                   W                   W
-------------------|-------------------|-------------------|
-------------------|-------------------|-------------------|
--L----------------|--L----------------|--L----------------|
--L----------------|--L----------------|--L----------------|
--L----------------|--L----------------|--L----------------|
--L----------------|--L----------------|--L----------------|


  W                   W                   W
-------------------|-------------------|-------------------|
-------------------|-------------------|-------------------|
--L----------------|--L----------------|--L----------------|
--L----------------|--L----------------|--L----------------|
--L----------------|--L----------------|--L----------------|
--L----------------|--L----------------|--L----------------|


-------------------|-------------------|-------------------|
-------------------|-------------------|-------------------|
-------------------|-------------------|-------------------|
-------------------|-------------------|-------------------|
-------------------|-------------------|-------------------|
-------------------|-------------------|-------------------|


-------------------||
-------------------||
-------------------||
-------------------||
-------------------||
-------------------||


Duration Legend
---------------
W - whole
H - half
Q - quarter
E - 8th
S - 16th
T - 32nd
X - 64th
. - note dotted
|-n-|  - n-tuplets


Tablature Legend
----------------
L - tied note
x - dead note
g - grace note
(n) - ghost note
> - accentuded note
NH - natural harmonic
AH - artificial harmonic
TH - tapped harmonic
SH - semi harmonic
PH - pitch harmonic
h - hammer on
p - pull off
b - bend
br - bendRelease
pb - preBend
pbr - preBendRelease
brb - bendReleaseBend
n/ - tremolo bar dip
n - tremolo bar dive
-/n - tremolo bar Release up
/n - tremolo bar inverted dip
/n - tremolo bar return
-n - tremolo bar Release down
S - shift slide
s - legato slide
/ -  slide into from below or out of upwards
 -  slide into from above or out of downwards
~ - vibrato
W - wide vibrato
tr - trill
TP - tremolo picking
T - tapping
S - slap
P - pop
< - fade in
^ - brush up
v - brush down


---------------------------LETRA-----------------------

¿has dudado alguna vez
sobre si estoy vivo o me siento bien?
¿sobre todo lo que he hecho hasta llegar?
de tener que hablar en bajo a poder participar
sobre que hago yo aquí, no es mi lugar
casi siempre odiado, casi siempre sin rival
me acostumbré y hoy me da igual
porque no te necesito, porque quiero que te quede claro.
Sabes quien soy, puedo dar fe
¿quién eres tu?, yo no lo se
Limítate a ver como paso (4x)
Hazme solo un gran favor
olvida que existo, es mucho mejor
ya no me motiva estar así
cuando nada me hace daño, cuando no se que decir
ha ocurrido siempre y pasará
que no importa lo que eres sino lo que serás
voy a asegurarme y no gastar
ni un solo minuto en tener que decir más
...en tener que decir más (4x)
En el fondo no hay lugar
si vienes de frente o si vienes de atrás
no hay motivo ni razón
solo que ahora soy yo y nadie más que yo
mucha prisa por llegar
y no sabes ni donde y cuando hay que bajar
es el precio por pasar
de querer tenerlo todo a querer ir más allá
...a querer ir más allá (1x)
Mucha prisa por llegar
y no sabes ni donde y cuando hay que bajar
es el precio por pasar
de querer tenerlo todo a querer ir más allá
Límitate (3x)
límitate, a ver como paso (4x)
límitate

Fuente: 

NOTA:

Espero y te ayude en algo esta tab.

Si necesitas una tab en especial, escríbeme o visita...


- Revisa la afinación de esta canción en especial
- Pon atención a las instrucciones que están al final
- contiene las 2 guitarras y letra

- CALIFICA SOLO SI LEÍSTE "EL MANUAL"-
Suggest correction
Creating personal tab
Creating personal tab
You can edit any tab online and save it as your Personal.

You can edit, replace or remove any tab part or add personal notes – all changes will be seen only by you.

Personal tabs can be accessed anytime from any device, even offline.
Learn more »
Give kudos to tab author, rate the tab!
1 2 3 4 5
comments
print report bad tab
guest
Wanna post a correction for this tab? Suggest correction