Oops, an error
Loading. Please wait.

Sin Tí No Vivo tab

14 views 1 this week
no commentswrite comment
1 2 3 4 5
3 more votes to show rating
add to favorites
×
Save as Personal and add changes to this tab that will be seen only by you. Learn more ›
×
You can save this tab as Personal to edit and correct it or add notes. All changes will be seen only by you. Learn more »
launch autoscroll
font size
0
reset
how to read this tab
guitar tuner
edit
Autoscroll
slow
fast
+/-
esc
set tempo
stop
*************** Intro ***************

        Guitarra 1: Electrica Distorsion
e|---------------------------------------------------------------------
B|-2-4-2-----------------2-4-2-----------------2-4-2-------------------
G|-------3-34-----------------3-30-----------------3-31----------------
D|---------------------------------------------------------------------
A|---------------------------------------------------------------------
E|---------------------------------------------------------------------

        Guitarra 2: Acústica
e|---------------6-7-------------------7-6-------------------6-7-------
B|-------------7---------------------8---------------------7-----------
G|---------------------------------------------------------------------
D|---------------------------------------------------------------------
A|---------------------------------------------------------------------
E|---------------------------------------------------------------------

        Guitarra 3: Electroacústica
e|-----------------------------------------4-4-------------------------
B|-----------------------------------------4-4-------------------6---4-
G|-----------------------------------------4-4---------------------8---
D|---------------------------------------------------------------------
A|---------------------------------------------------------------------
E|---------------------------------------------------------------------


La última parte la hace solo la Guitarra 1
e|---------------------
B|-2-4-2---------------
G|-------3-30----------
D|---------------5-4-2-
A|---------------------
E|---------------------


(De aquí en adelante la Guitarra 2 Charrasquea las notas durante todo...
la canción a Excepcion de cuando se tienen que callar los tres guitarras)

*************** Estrofa I ***************

         B               G#m
Dónde estás amor, ven y ayudame,
        E                G       F#7
todo es irreal, se desvanece,
                   Riff 1               Riff 1
         B                  G#m
dónde estás amor, ven susurrandome,
               Riff 2                   <-- Aqui se comienza el Riff 2
        E               G|       F#7
que mi corazón te pertenece,
        G#m
llueve tanto amor,
         E                 C#m                       G
nunca te olvidé, siempre te amaré, siempre, te amaré, niña vuelve,
 F#7 (Distorsion Gtr 1)                 <-- Aqui termina el Riff 2
niña vuelve...


*************** Coro ***************

                                   Riff 3
            B                      D#
Porque sin ti no vivo yo, no vivo más,
           E
no existo más y antes de nacer
           G          F#7
ya habia muerto de amor,

                                   Riff 4
            B                      D#
Porque sin ti no vivo yo, no vivo más,
           E
no existo más y antes de nacer
            G        F#7|
ya habia muerto de amor,

(Esto lo hace el bajo en la canción Pero lo puedo hacer la Guitarra 1)

        e|---------------
        B|---------------
        G|---------------
        D|------4--------
        A|-4/6-----6-4-2-
        E|---------------


*************** Estrofa II ***************

                  Riff 5             Riff 5
        B                  G#m
Te amo tanto amor, ven y sienteme,
                  Riff 6
          E                    G        F#7
nunca es tarde amor, quiero tenerte,
                 Riff 1                 Riff 1
        B                  G#m
y que de una vez tú puedas entender,
                 Riff 7
          E           G         F#7
que mi corazón te pertenece,
        G#m
llueve tanto amor,
                Riff 8
        E                  C#m
nunca te olvidé, siempre te amaré, siempre
         G              F#7
te amaré, niña vuelve, niña vuelve...


(Se Toca el coro tal cual esta arriba)

            B
Porque sin ti no vivo yo,
       G                F#7|
naranana nana nana narana


*************** Aquí se sube un tono ***************

                 Riff 9
            C#       F         F#       A        G#7
Porque sin ti... nounoh...

            C#                     F
Porque sin ti no vivo yo, no vivo más,
           F#
no existo más y antes de nacer
           A       G#7
ya habia muerto de amor,

            C#                     F
Porque sin ti no vivo yo, no vivo más,
           F#
no existo más y antes de nacer
           A       G#7
ya habia muerto de amor,

            C#           A#m
Porque sin ti no vivo yo,
              F#      A   G#7         C#
y si tú no estás el mundo me daria igual...


*************** FIN ***************


           Riff 1:
Guitarra 1
e|-------
B|--11~-
G|-11----
D|-------
A|-------
E|-------


           Riff 2:
Guitarra 1
e|-------------------------------------------------------------
B|--11~14---12-11-9--------------------------------------------
G|-11----------------------------------------------------------
D|-------------------------------------------------------------
A|-------------------------------------------------------------
E|-------------------------------------------------------------

Guitarra 3
e|-------------------------------------------------------------
B|---------8-------7-------9---------5-------4-------5-------4-
G|-----------6---6-------8---------4-------4-------4-------4---
D|-------------8-------9---------------6-------6-------6-------
A|-------------------------------7-------6-------7-------6-----
E|-------------------------------------------------------------


           Riff 3:
Guitarra 3
e|-----8-------9-------------------------
B|---8-------8---------4-------5-------7-
G|-8-------9---------4-------4-------6---
D|---------------------------------------
A|-----------------6-------7-------9-----
E|---------------------------------------


           Riff 4:
Guitarra 3
e|-2----------8-------9-------------------------
B|-3--------8-------8---------4-------5-------5-
G|-3------8-------9---------4-------4-------4---
D|----------------------------------------------
A|-----------------6-------4-------7------------
E|----------------------------------------------


           Riff 5:
Guitarra 3
e|-------
B|-23----
G|----23-
D|-------
A|-------
E|-------


           Riff 6:
Guitarra 3
e|-----------------3---2-
B|-19-12----------3----2-
G|---------------4-----3-
D|--------------5------2-
A|-----------------------
E|-----------------------


           Riff 7:
Guitarra 1
e|------------------
B|--11~14---11---8--
G|-11---------------
D|------------------
A|------------------
E|------------------


           Riff 8:
Guitarra 1
e|------------------------------------3----2-
B|-0---------4/5-------4-7-4---------3-----2-
G|-4/6---4/6-------4-6-------6-4----4------3-
D|-6-------------------------------5-------2-
A|-------------------------------------------
E|-------------------------------------------


           Riff 9:
Guitarra 1
e|---------------4-----------4/64------------------------
B|-4/64-------4-----------6-------4/64-6-5---6-4/6-2/4---
G|-------6-5-8-------5-6-8-------------------6-----------
D|-------------------------------------------------------
A|-------------------------------------------------------
E|-------------------------------------------------------

*************************************

Se que no entiendes los numeros y todo lo demas
que aparece en esta página, solo queria que leyeras
esto y que supieras que esta canción va dedicada
con todo mi cariño a ti Rosma "MI DONCELLA".
Espero que te guste, mi cielo.

*************************************
Bueno Aqui les dejo la primera tablatura que saco
Me gustaría que me escribiran a mi correo dandome
opiniones, sugerencias, y/o criticas para mejorar
MI técnica

Alexander Rondón (

            
            
Suggest correction
Creating personal tab
Creating personal tab
You can edit any tab online and save it as your Personal.

You can edit, replace or remove any tab part or add personal notes – all changes will be seen only by you.

Personal tabs can be accessed anytime from any device, even offline.
Learn more »
Give kudos to tab author, rate the tab!
1 2 3 4 5
comments
print report bad tab
guest
Wanna post a correction for this tab? Suggest correction