Oops, an error
Loading. Please wait.

Aburrida La Vida tab

145 views 1 this week
no commentswrite comment
1 2 3 4 5
3 more votes to show rating
add to favorites
×
Save as Personal and add changes to this tab that will be seen only by you. Learn more ›
×
You can save this tab as Personal to edit and correct it or add notes. All changes will be seen only by you. Learn more »
launch autoscroll
font size
0
reset
how to read this tab
guitar tuner
edit
Autoscroll
slow
fast
+/-
esc
set tempo
stop
CAMARA BANDA HAY LES BA ESTA ROLITA

INTRO

1---5-7-8-7-5----757575---8-7-878--4---75--010-------------I
2---------------------------------------------------1------I
3-------------------------------------------------2--------I
4----------------------------------------------------------I
5----------------------------------------------------------I
6----------------------------------------------------------I


Am            Dm
ABURRIDA LA VIDA
       G            E7
SE LA PASA EN LA COCINA
                           Am
HACIENDO CUENTAS PARA EL GASTO
                     Dm
Y SU ESPOSO EN LA CANTINA
     E7               Am
NO LA SACA NI A LA ESQUINA

                Dm
APURA RISA,LA VIDA
       G           E7
SE LA PASA EN LA CANTINA
                    Am
AVENTANDOSE UNAS CERCIAS
                  Dm
MALGASTANDO LA MORRALLA
        E7               Am
Y SU ESPOSA ALLA EN LA CASA

                 Dm
PEGADA EN EL LAVADERO
         G            E7
TE HAS PASADO QUINCE AÑOS
                    Am
QUINCE AÑOS DE TU VIDA
                      Dm
MAS DE CINCO MAS DE SIETE
       E7                Am
TIENE QUE NO VAS NI AL CINE


Dm            G         E7
NERROTICA,NEUROTICA,NEUROTICA,
                            Am
VAS A TERMINAR NEUROTICA,NEUROTICA

Dm            G        E7
NEUROTICA ,NEUROTCA,NEUROTICA
                   Am
VAS A TERMINAR NEUROTICA
                     Dm
YA LE GRITAS A TUS HIJOS
        G            E7
NO CONTROLAS TUS SENTIDOS
                    Am
YA NO SABES LO QUE DICES

                    Dm
LOS AÑOS,LOS SUFRIMIENTOS
         G            E7
LOS PROBLEMAS LOS LAMENTOS
                    Am
TERMINARON CON TU ROSTRO

                    Dm
CON TUS QUINCE PRIMAVERAS
    E7                Am
Y PENSAR QUE FUE UNA NOCHE
             Dm
UNA NOCHE SABATINA
          G           C
QUE TE FUISTE PA LA ESQUINA

                         Dm
FUE AL CALOR DE UNOS ALCOHOLES
          E7          Am
QUE SE PROLONGO LA CHARLA
                    Dm
NO HABIAN ANTICONSEPTIVOS
        G            E7
NO INVENTABAN LOS CODONES
                     Am
 TE DESABROCHO EL VESTIDO


1---------5----------5------I------5--------5----I
2---------7----------7------I------7--------7----I
3---7---------7--6------6---I--5------5--4-------I
4---------------------------I--------------------I
5---------------------------I--------------------I
6---------------------------I--------------------I

1------------------------------------------------I
2---------5------------------5-------------------I
3---------5------------------5-------------------I
4---------5------------------5-------------------I
5--3-----------3-----4----------------4----------I
6------------------------------------------------I


1------5--------7--I-----------------------------I
2------6--------9--I--------5------5-------------I
3------7--------7--I------5------5---------------I
4---------------9--I--7--------6------5----------I
5--3-------7-------I-----------------------------I
6------------------I-----------------------------I

1------------------------------------------------I
2-------5---------------------5------------------I
3---5-------5-----------5------------------------I-
4---------------6--------------------------------I
5------------------------------------------------I
6------------------------------------------------I
  Dm           G              C    C#dimm
Y YA VEZ,DE AQUELLO NO QUEDA NADA
  Dm           G              C    C#dimm
Y YA VEZ,DE AQUELLO NO QUEDA NADA
  Dm           G              C    C#dimm
Y YA VEZ,DE AQUELLO NO QUEDA NADA
  Dm           G              C    C#dimm
Y YA VEZ, DE AQUELLO NO QUEDA NADA
                        E7
CASI NADA MAS BIEN NADA


HASI VA TODA LA ROLA

SALUDOS PARA TODA LA BANDA QUE LES GUSRA EL ROCK AND ROLL
URBANO Y UN SALUDOTE ALA PRIMATE ERIKA Y SU BB

            
            
Suggest correction
Creating personal tab
Creating personal tab
You can edit any tab online and save it as your Personal.

You can edit, replace or remove any tab part or add personal notes – all changes will be seen only by you.

Personal tabs can be accessed anytime from any device, even offline.
Learn more »
Give kudos to tab author, rate the tab!
1 2 3 4 5
comments
print report bad tab
guest
Wanna post a correction for this tab? Suggest correction