Oops, an error
Loading. Please wait.

Campeón bass

20 views 3 this week
no commentswrite comment
1 2 3 4 5
3 more votes to show rating
add to favorites
×
Save as Personal and add changes to this tab that will be seen only by you. Learn more ›
×
You can save this tab as Personal to edit and correct it or add notes. All changes will be seen only by you. Learn more »
launch autoscroll
font size
0
reset
guitar tuner
edit
Autoscroll
slow
fast
+/-
esc
set tempo
stop
Al inicio de la canción sólo entra la guitarra y 
la batería,el bajo entra a la mitad del intro

G---------------------
D---------------------
A----5--3--0----------
E-------------3-------


VERSOS

G--------------------------------------------------
D--------------------------------------------------
A-5-5-5-7-7-7-7--7--3-2-0--0-0-0-0-2-3-3-3-3-2-3-5-
E--------------------------------------------------

  Se que algún día tengo que reconocer

G--------------------------------------------------
D--------------------------------------------------
A-5-5-5-5-7-5--3-3-3-3--2-3-5----------------------
E--------------------------------------------------

que fui tonto en el amor

G--------------------------------------------------
D--------------------------------------------------
A-5-5-5-5-7-5--3-3-3-3-3-3-------------------------
E--------------------------3-3--3-3-3-3-3-3-3------

QUE FUI TONTO EN EL AMOR

G--------------------------------------------------
D--------------------------------------------------
A------------------------2-2-2-2--7-7-7-7-7-7------
E-3-3-3-3-3-3-3-3-3-3-3----------------------------

SIEMPRE HE SIDO UN MUCHACHO CON MALA SUERTE, CON MALA SUERTE

G--------------------------------------------------
D--------------------------------------------------
A-5-5-5-5-5-5-5-5-5-5-3-3-3-3-3-3-2----------------
E------------------------------------3-------------

perdiste campeón esta vez te tocó perder.


G--------------------------------------------------
D--------------------------------------------------
A-----------5-5-5-5-7-7-7-7-3-3-3-3-3-5-5-5-5------
E-3-3-3-3-3----------------------------------------

AMOR SI ME QUIERES NO ME ENGAÑES NUNCA

G--------------------------------------------------
D--------------------------------------------------
A--7-7-7-7--7-7-7-7--3-3-3-3-5-5-5-5---------------
E--------------------------------------------------

AMOR SI ME QUIERES NO ME DEJES CAER

G--------------------------------------------------
D--------------------------------------------------
A-0-0-0-0-0-0-0-0-0-0------------------------------
E----------------------3-3-3-3-3-3-3---------------

NO AVIENTES LA TOALLA POR MÍ


EN EL SOLO DE METALES SÓLO SE HACE LO SIGUIENTE:

G--------------------------------------------------
D--------------------------------------------------
A----------3-3-3-3-33-3-3-----------------3-3-3-3-3
E--3-3-3-3----------------3-3-3-3-3-3-3-3----------

EN EL INTERMEDIO (DONDE SÓLO VA EL SAX)

G--------------------------------------------------
D--------------------------------------------------
A-0--2--3--0--2--3---23--0-2-3---------------------
E--------------------------------------------------


DESPUÉS SE REPITEN LOS VERSOS Y LOS MISMOAS COROS 
HASTA EL FINAL DE LA CANCIÓN.

            
            
Suggest correction
Creating personal tab
Creating personal tab
You can edit any tab online and save it as your Personal.

You can edit, replace or remove any tab part or add personal notes – all changes will be seen only by you.

Personal tabs can be accessed anytime from any device, even offline.
Learn more »
Give kudos to tab author, rate the tab!
1 2 3 4 5
comments
print report bad tab
guest
Wanna post a correction for this tab? Suggest correction