Oops, an error
Loading. Please wait.

El No Lo Mató tab

version 3
version 3

Whole song

123 views 1 this week
no commentswrite comment
1 2 3 4 5
3 more votes to show rating
add to favorites
×
Save as Personal and add changes to this tab that will be seen only by you. Learn more ›
×
You can save this tab as Personal to edit and correct it or add notes. All changes will be seen only by you. Learn more »
launch autoscroll
font size
0
reset
how to read this tab
guitar tuner
edit
Autoscroll
slow
fast
+/-
esc
set tempo
stop
Esta es muy facil simplemente tienes que tocar 
la cuerdas adecuadas, esta se toca con las mismas
pisadas, nada mas es cuestion de tocar las cuerdas adecuadas.


pones la pisada 'A' y tocas las cuerdas mi,si,sol, juntas, asi.

cuerdas que tienes que tocas *

         A

  e---0-----*
  b---2-----*
  g---2-----*
  d---------
  a---------
  E---------

poniendo la pisada

        C#7      

  e---------/---4----*
  b---6----*/--------
  g---------/--------
  d---6----*/--------
  a---------/--------
  E---------/--------

poniendo la pisada

        Fm

  e---2------2------*
  b-----2-------2---*
  g-------2-------2-*
  d-----------------
  a-----------------
  E-----------------

poniendo la pisada

         E

  e---0---------------------*
  b-----2---------------2---*
  g-------2-----------2-----*
  d---------1-------1-------*
  a---------------0---------*
  E------------0------------*


Se repite dos veces todo, nada mas tienes que 
ponerle el ritmo y la pausa.
alguna aclaracion o duda ahi esta mi e-mail
saludos a toda la banda VIBA

            
            
Suggest correction
Creating personal tab
Creating personal tab
You can edit any tab online and save it as your Personal.

You can edit, replace or remove any tab part or add personal notes – all changes will be seen only by you.

Personal tabs can be accessed anytime from any device, even offline.
Learn more »
Give kudos to tab author, rate the tab!
1 2 3 4 5
comments
print report bad tab
guest
Wanna post a correction for this tab? Suggest correction