Oops, an error
Loading. Please wait.

Mujer De Hotel tab

69 views 1 this week
no commentswrite comment
1 2 3 4 5
3 more votes to show rating
add to favorites
×
Save as Personal and add changes to this tab that will be seen only by you. Learn more ›
×
You can save this tab as Personal to edit and correct it or add notes. All changes will be seen only by you. Learn more »
launch autoscroll
font size
0
reset
how to read this tab
guitar tuner
edit
Autoscroll
slow
fast
+/-
esc
set tempo
stop
 Que onda, ahi les dejo el solo de esta rola que es una de mis favoritas
del Haragan. Quizas tenga unos errores pero suena bien.
---------------------------------------------------------------------------
intro'
fig.1

e.--7s5--5s4--4--
B.--5s4--4----2--
G.------------2--
D.------------2--
A.---------------
E.---------------


fig.1                   E
e.--12po9s7-7-9po7s4-------------
B.---------9---------7-7b(9)~~~~~
G.-------------------------------
D.-------------------------------
A.-------------------------------
E.-------------------------------

  F#m                   G#m
e.-------------------------------------------
B.-------------------------------------12~~~~
G.-------------------------------11-13-------
D.--9pm-9pm-11s14-14~~~~9-9-11s14------------
A.-------------------------------------------
E.-------------------------------------------

     A                 B         fig.1                          E
e.--/17~~~~~~~~~~~~~~/19~~~~~~~~~~~~~19s12-12~~---9-7-9po74--------------
B.---------------------------------------------7s9-----------7-7b(9)~~~~~
G.-----------------------------------------------------------------------
D.-----------------------------------------------------------------------
A.-----------------------------------------------------------------------
E.-----------------------------------------------------------------------

  F#m
e.-----------------------------------------------------------------------
B.-----------------------------------------------------------------------
G.-----------------------------------------------------------------------
D.--9pm-9pm-11s14--9pm-9pm-11s14--9pm-9pm-11s14--9pm-9pm-11s14--9--------
A.-----------------------------------------------------------------------
E.-----------------------------------------------------------------------

  G#m                                A                        B    fig.1
e.----------------------------------/16~~14b(16b14)-12--------14~~~~
B.--12s7-5--12s7-5--12s7-5--12s7-5----------------------14-12(12)---
G.------------------------------------------------------------------
D.------------------------------------------------------------------
A.------------------------------------------------------------------
E.------------------------------------------------------------------

s / =slide
toca la primera nota y luego desliza el el dedo a la nota que sigue.

po  =pull of
pon ambos dedos sobre la cuerda a sonar,toca la primera nota, y sin
volver a tocar, quita el dedo para hacer sonar la siguiente(mas
baja)nota.

pm  =palm muting
la nota es parcialmente 'apagada' por la mano derecha tocando
ligeramente la(s) cuerda(s) justo antes del puente.

~~~ =vibrato
consiste en mover rapidamente la cuerda arriba y abajo sobre la nota,
creando un efecto de vibracion.

7b(9)=bend
toca y 'estira' la cuerda un tono completo o dos trastes,7b(9)
por ejemplo.

            
            
Suggest correction
Creating personal tab
Creating personal tab
You can edit any tab online and save it as your Personal.

You can edit, replace or remove any tab part or add personal notes – all changes will be seen only by you.

Personal tabs can be accessed anytime from any device, even offline.
Learn more »
Give kudos to tab author, rate the tab!
1 2 3 4 5
comments
print report bad tab
guest
Wanna post a correction for this tab? Suggest correction