Oops, an error
Loading. Please wait.

Purgante De Amor tab

version 1
version 1

Whole song

311 views 1 this week
no commentswrite comment
1 2 3 4 5
3 more votes to show rating
add to favorites
×
Save as Personal and add changes to this tab that will be seen only by you. Learn more ›
×
You can save this tab as Personal to edit and correct it or add notes. All changes will be seen only by you. Learn more »
launch autoscroll
font size
0
reset
how to read this tab
guitar tuner
edit
Autoscroll
slow
fast
+/-
esc
set tempo
stop
E   Am   B 
|----------------------------------------------------------------|
|----------------------------------------------------------------|
|-1---2---2/5---2---1--------------------------------------------|
|----------------------------------------------------------------|
|----------------------------------------------------------------|
|----------------------------------------------------------------|
  E   Am   B
|-1---2---2/5---2---1--------------------------------------------|
|----------------------------------------------------------------|
|----------------------------------------------------------------|
|----------------------------------------------------------------|
|----------------------------------------------------------------|
|----------------------------------------------------------------|
            Am                E     
|--------------0---5---0---7---5-5/4-----------------------------|
|----------------------------------------------------------------|
|----------------------------------------------------------------|
|----------------------------------------------------------------|
|----------------------------------------------------------------|
|----------------------------------------------------------------|
            Am                E     
|--------------0---5-5-5-5-5----7---5---6------------------------|
|----------------------------------------------------------------|
|----------------------------------------------------------------|
|----------------------------------------------------------------|
|----------------------------------------------------------------|
|----------------------------------------------------------------|
            Am                E
|--------------12---9--------------------------------------------|
|-----------------------12/14------12---10---9---7/9-------------|
|----------------------------------------------------------------|
|----------------------------------------------------------------|
|----------------------------------------------------------------|
|----------------------------------------------------------------|
            Am                E
|----------------------------------------------------------------|
|---------------0p2---5----7--7/9---7/5--------------------------|
|----------------------------------------------------------------|
|----------------------------------------------------------------|
|----------------------------------------------------------------|
|----------------------------------------------------------------|

   Am         E 
Perdido estoy 
   Am         E 
perdido estoy 
       B 
en un circulo vicioso 
C#m              B 
y no lo puedo evitar 
C#m              B 
y no lo puedo evitar 
C#m            G#m    F#m B     E 
quiero y no puedo dejarte de amar 
    Am     E
Perdido estoy
    Am     E
perdido estoy
       B
en el vicio de tu amor
C#m               B
y no lo puedo entender 
C#m               B
y no lo puedo entender
C#m    G#m      F#m      B        E
nunca habia querido así a una mujer
    Am     E
Perdido estoy
        Am        E
muy perdido yo estoy
C#m                G#m 
cuando te sientas asi 
   B         E 
igual que yo 
C#m                 G#m 
ve a la farmacia de la esquina 
   F#m           B               E 
y tomate un purgante de amor 
C#m          F# 
un brebaje magico 
      A   B        E 
que te cure  de amor


Am-x02210
E--022100
B--x24442
C#m-x46654
F#m-244222
G#m-466444
A---x02220

Un saludo para la banda de los destroyer´s alla en 
xochimilco (banda rockanrolera) 
y esta rola es para ti Dafne recuerda ke te AMO.
Atte:Paniko 911.

            
            
Suggest correction
Creating personal tab
Creating personal tab
You can edit any tab online and save it as your Personal.

You can edit, replace or remove any tab part or add personal notes – all changes will be seen only by you.

Personal tabs can be accessed anytime from any device, even offline.
Learn more »
Give kudos to tab author, rate the tab!
1 2 3 4 5
comments
print report bad tab
guest
Wanna post a correction for this tab? Suggest correction