Oops, an error
Loading. Please wait.

Purgante De Amor tab

version 2
version 2

Whole song

160 views 1 this week
no commentswrite comment
1 2 3 4 5
3 more votes to show rating
add to favorites
×
Save as Personal and add changes to this tab that will be seen only by you. Learn more ›
×
You can save this tab as Personal to edit and correct it or add notes. All changes will be seen only by you. Learn more »
launch autoscroll
font size
0
reset
how to read this tab
guitar tuner
edit
Autoscroll
slow
fast
+/-
esc
set tempo
stop
esta cancion esta bbn bonitaa se la dedico
a todos aquellos ke se enamoraron alguna ves y an sido
despresiadoss le doiii gracias
a mi amigo0o0  luis alberto cruzz gracias por aver ddeicado
tu tiempo en aver dedicado tu tiempo

SALUDOS A TODOS MIS AMIGOSS DEL CECYTE
Y TAMBIEN A TODA LA RAZA DE TIJUANA,BC.


       Am         E                  Am        E
e|------------------------|-------------------0-------
b|------------------------|---------------------------
g|-1--1/2--2h4-2-1--------|-----1--1/2--2h4-2---------
D|------------------------|---------------------------
A|------------------------|---------------------------
E|------------------------|---------------------------

      Am           E            Am             E

e|----5----7----5-5p4-----|-----5-5-5-5--h7p5--4------
b|--5----5----------------|---5-----------------------
g|------------------------|---------------------------
D|------------------------|---------------------------
A|------------------------|---------------------------
E|------------------------|---------------------------

           C#m            G#m

e|--12p9--7/9--------7-----------------------------
b|----------------------10-9--7h9------------------
g|-------------------------------------------------
D|-------------------------------------------------
A|-------------------------------------------------
E|-------------------------------------------------


      F#m         B          E

e|-------------------------------------------
b|-------------------------------------------
g|-------9-11-11b13--11p9h11p9---------------
D|--9h11-------------------------------------
A|-------------------------------------------
E|-------------------------------------------


     Am    E
  Perdido estoy
     Am    E
  perdido estoy
         B
  en un circulo vicioso
C#m                 B
  y no lo puedo evitar
C#m                 B
  y no lo puedo evitar
C#m            G#m    F#m B      E
  quiero y no puedo dejarte de amar

    Am     E
  Perdido estoy
    Am           E
  perdido  yo estoy
         B
  en el vicio de tu amor
C#m                   B
  y no lo puedo entender
C#m                   B
  y no lo puedo entender
C#m       G#m    F#m    B     E
  nunca habia querido así a una mujer


     Am      E
  Perdido estoy
         Am         E      B
  muy perdido yo estoy


                              C#m

e|--------------------------------------------
b|--7/9---9--12-12-12----12p9h12--12/14-------
g|--------------------------------------------
D|--------------------------------------------
A|--------------------------------------------
E|--------------------------------------------

                 B

e|--------------------------------------------
b|--12-9----9---------------------------------
g|-------11---11b14-------9-9-----------------
D|---------------------11---------------------
A|--------------------------------------------
E|--------------------------------------------

 C#m                 B

e|--------------------------------------------
b|--------------10-9--------------------------
g|-------9-11--------11----9h11--11b13--------
D|-9-11---------------------------------------
A|--------------------------------------------
E|--------------------------------------------

       C#m              G#m

e|--12---------------12-----------------------
b|-----14--12/14--------14--12/14---12--------
g|-------------------------------------h14p13-
D|--------------------------------------------
A|--------------------------------------------
E|--------------------------------------------

    F#m          B       E

e|--------------------------------------------
b|--------------------10-9--------------------
g|------9--9-9---11p9----------(9)------------
D|--9h11-------------------------(11)---------
A|--------------------------------------------
E|--------------------------------------------

      Am                     E             Am

e|---10p7-----7-7-----------------------------
b|---------10--------10p8--10b12r--10p8---8-8-
g|--------------------------------------9-----
D|--------------------------------------------
A|--------------------------------------------
E|--------------------------------------------

                E

e|--------------------------------------------
b|--12--10--9---------------------------------
g|-------------11b13---11p9-------------------
D|--------------------------------------------
A|--------------------------------------------
E|--------------------------------------------


      Am      E
  Perdido estoy
         Am         E     B
  muy perdido yo estoy

C#m                 G#m
  cuando te sientas asi
     B       E
  igual que yo
C#m                G#m
  ve a la farmacia de la esquina
   F#m            B         E
  y tomate un purgante de amor
C#m           F#
  un brebaje magico
          A   B      A
  que te cure    de amor

                     Am

e|---12------------|--------------|-------------
b|------14--12b14r-|-10-----------|-------------
g|-----------------|----13--11b13r|------9-11---
D|-----------------|--------------|-9h11--------
A|-----------------|--------------|-------------
E|-----------------|--------------|-------------


          E
e|--------------------------------------------
b|--------------------------------------------
g|--------9-11---9--11b13r11--9---------------
D|--9h11--------------------------------------
A|--------------------------------------------
E|--------------------------------------------


     Am   A    E    B   C#m  G#m  F#m

e|---0----0----0----2----4----4----2----------
b|---1----2----0----4----5----4----2----------
g|---2----2----1----4----6----4----2----------
D|---2----2----2----4----6----6----4----------
A|---0----0----2----2----4----6----4----------
E|-------------0--------------4----2----------

            
            
Suggest correction
Creating personal tab
Creating personal tab
You can edit any tab online and save it as your Personal.

You can edit, replace or remove any tab part or add personal notes – all changes will be seen only by you.

Personal tabs can be accessed anytime from any device, even offline.
Learn more »
Give kudos to tab author, rate the tab!
1 2 3 4 5
comments
print report bad tab
guest
Wanna post a correction for this tab? Suggest correction