Oops, an error
Loading. Please wait.

Sueños De La Ciudad tab

16 views 1 this week
no commentswrite comment
1 2 3 4 5
3 more votes to show rating
add to favorites
×
Save as Personal and add changes to this tab that will be seen only by you. Learn more ›
×
You can save this tab as Personal to edit and correct it or add notes. All changes will be seen only by you. Learn more »
launch autoscroll
font size
0
reset
how to read this tab
guitar tuner
edit
Autoscroll
slow
fast
+/-
esc
set tempo
stop
Los acordes de toda la canción son en quintas.

F : xx35xx
E7: xx23xx
D : x57xxx
C : x35xxx
Bb: x13xxx
Eb: x68xxx
F#: 24xxxx
G : 35xxxx
Ab: 46xxxx
Db: x46xxx


Intro: F E7 D C Bb C Bb-C-D-F-C-Bb


    F           E7       D
La noche puede ser criminal:
      C
a través de la pared,
     Bb       C
los niños, recogen
       D    F      C Bb
pordioseros en la calle.

     F            E7          D
Las ambulancias lloran en la noche,
     C
recogiendo los despojos
   Bb
de mi humanidad:
     C            Eb-D-C-Fig.1
moribundos, nauseabundos.


Fig.1

     Bb      F#      Bb      F#      G               Bb

6a.----------------------------------3-----3-3-----3-----------------
5a.----------------------------------5-----5-5-----5-1-----1-1-----1-
4a.--3-3-3-3-3-3-3-3-3-3-3-3-3-3-3-3-5-----5-5-----5-3-----3-3-----3-
3a.---3-3-3-3-4-4-4-4-3-3-3-3-4-4-4-4----------------3-----3-3-----3-
2a.------------------------------------------------------------------
1a.------------------------------------------------------------------


F             E7          D
La violencia policiaca aunada
      C               Bb
a mi sentimiento de inferioridad
        C
son el sueño,
Bb  C   F       D      C-Bb
son el sueño de la ciudad.

    F            E7
Buscando voy, en mi ciudad,
    D                C
la felicidad: en el neón
             Bb
de los aparadores,
       C   Bb C  D    F    C-Bb
en la luz, en la electricidad.


Intermedio:

Fig.2 (x 2)

6a.----------------------------------
5a.--------------------6-------------
4a.----8--8--8-8--8--8-8-------------
3a.----7--7--7-8--8--8-8-----8-7-----
2a.----------------------------------
1a.----------------------------------

F E7 D C Bb C D-F-C-Bb

F E7 D C Bb C D-F-C-Bb D-F-C-Bb


    F           E7       D
La noche puede ser criminal:
      C
a través de la pared,
     Bb       C
los niños, recogen
Bb  C  D    F      C Bb
pordioseros en la calle.

    F            E7
Buscando voy, en mi ciudad,
    D                C
la felicidad: en el neón
             Bb
de los aparadores,
       C   Bb C  D    F    C-Bb
en la luz, en la electricidad;
       C   Bb C  D    F    C-Bb
en la luz, en la electricidad.


Salida: Eb Bb Ab Db Eb Bb

            
            
Suggest correction
Creating personal tab
Creating personal tab
You can edit any tab online and save it as your Personal.

You can edit, replace or remove any tab part or add personal notes – all changes will be seen only by you.

Personal tabs can be accessed anytime from any device, even offline.
Learn more »
Give kudos to tab author, rate the tab!
1 2 3 4 5
comments
print report bad tab
guest
Wanna post a correction for this tab? Suggest correction