Oops, an error
Loading. Please wait.

Molinos De Viento Tab

version 2
version 2

Whole song

Interactive

11,572 views 24 this week
no commentswrite comment
1 2 3 4 5
3 more votes to show rating
add to favorites
launch autoscroll
font size
0
reset
how to read this tab
guitar tuner
backing track
0:00
0:00
×
Best way to learn
"Molinos De Viento"
Autoscroll
slow
fast
+/-
esc
set tempo
stop
Mago De Oz Molinos De Viento

[Intro en violin](x2)
e|-15--15-15-15-15-17-15-15-14-15-15-----|
B|----------------------------------17---|
G|---------------------------------------|
D|---------------------------------------|
A|---------------------------------------|
E|---------------------------------------|

e|-15--15-15-15-15-17-15-15-14-15-14-----|
B|----------------------------------15---|
G|---------------------------------------|
D|---------------------------------------|
A|---------------------------------------|
E|---------------------------------------|

e|-14--14-14-14-14-17-14-14--14-14-------|
B|-------------------------15------------|
G|---------------------------------------|
D|---------------------------------------|
A|---------------------------------------|
E|---------------------------------------|

e|---------12-17-------14-17-15----------|
B|-13-13-13-------15-15------------------|
G|---------------------------------------|
D|---------------------------------------|
A|---------------------------------------|
E|---------------------------------------|

[Guitarras]
[Riff 1 x2]
e|------------------------------------------------------|
B|------------------------------------------------------|
G|------------------------------------------------------|
D|-7-9--9-9---------9-7-9---------9-9-7-7---------7-----|
A|-5-7--7-7-7-7-7-7-7-5-7-7-7-7-7-7-7-5-5-5-5-5-5-5-----|
E|------------------------------------------------------|
            Pm.....       Pm....         pm....

e|-----------------------------|
B|-----------------------------|
G|----------------------------*|
D|-------5--------7-----------*|
A|-3-3-3-3--5-5-5-5------------|
E|-----------------------------|
   pm...    pm...

[Riff2 x2]
  (0:15) Si acazo tu no vez...
e|--------------------------------------------------|
B|--------------------------------------------------|
G|------------------------------------------------*-|
D|-5-9---9-7--------5--------7--------------------*-|
A|-7-7---7-5--3-3-3-3--5-5-5-5----------------------|
E|--------------------------------------------------|
              PM...    PM...

[Riff 1 x2](0:28)
  Amigo Sancho escuchame...
e|------------------------------------------------------|
B|------------------------------------------------------|
G|------------------------------------------------------|
D|-7-9--9-9---------9-7-9---------9-9-7-7---------7-----|
A|-5-7--7-7-7-7-7-7-7-5-7-7-7-7-7-7-7-5-5-5-5-5-5-5-----|
E|------------------------------------------------------|
            Pm.....       Pm....         pm....

e|-----------------------------|
B|-----------------------------|
G|----------------------------*|
D|-------5--------7-----------*|
A|-3-3-3-3--5-5-5-5------------|
E|-----------------------------|
   pm...    pm...

[Acustico(0:42)con el rasgeo de abajo arriba]
Avezes siento el despertar...
e|-0-0-0-0-0-0--0-0-0--3-3-3--0-0-0----|
B|-0-0-0-0-0-0--0-0-0--2-2-2--1-1-1----|
G|-0-0-0-0-0-0--0-0-0--3-3-3--0-0-0--*-|
D|-2-2-2-2-2-2--2-2-2--0-0-0--2-2-2--*-|
A|-2-2-2-2-2-2--2-2-2---------3-3-3----|
E|-0-0-0-0-0-0--0-0-0---------0-0-0----|

e|-0-0-0-0-0-0--0-0-0--3-3-3--0-0-0----|
B|-0-0-0-0-0-0--0-0-0--2-2-2--1-1-1----|
G|-0-0-0-0-0-0--0-0-0--3-3-3--0-0-0--*-|
D|-2-2-2-2-2-2--2-2-2--0-0-0--2-2-2--*-|
A|-2-2-2-2-2-2--2-2-2---------3-3-3----|
E|-0-0-0-0-0-0--0-0-0---------0-0-0----|

e|-3-3-3-3-3-3--3-3-3--3-3-3--0-0-0----|
B|-0-0-0-0-0-0--0-0-0--2-2-2--1-1-1----|
G|-0-0-0-0-0-0--0-0-0--3-3-3--0-0-0----|
D|-0-0-0-0-0-0--0-0-0--0-0-0--2-2-2----|
A|-2-2-2-2-2-2--2-2-2---------3-3-3----|
E|-3-3-3-3-3-3--3-3-3---------0-0-0----|

e|-3-3-3-3-3-3--3-3-3--3-3-3--0-0-0----|
B|-0-0-0-0-0-0--0-0-0--2-2-2--1-1-1----|
G|-0-0-0-0-0-0--0-0-0--3-3-3--0-0-0----|
D|-0-0-0-0-0-0--0-0-0--0-0-0--2-2-2----|
A|-2-2-2-2-2-2--2-2-2---------3-3-3----|
E|-3-3-3-3-3-3--3-3-3---------0-0-0----|

[Riff 3](0:56)
  Bebe danza sue?
e|--------------------------------------|
B|--------------------------------------|
G|--------------------------------------|
D|-9-------9---------7-------7-----5----|
A|-7-7-7-7-7-7-7-7-7-5-5-5-5-5-3-3-3----|
E|--------------------------------------|
     Pm...   Pm.....   Pm...   pm.

e|--------------------------------------|
B|--------------------------------------|
G|--------------------------------------|
D|-9-------9---------7-------7-----5----|
A|-7-7-7-7-7-7-7-7-7-5-5-5-5-5-3-3-3----|
E|--------------------------------------|
     Pm...   Pm.....   Pm...   pm.

e|--------------------------------------|
B|--------------------------------------|
G|--------------------------------------|
D|------------7------7------5-----------|
A|-5-5-----5--5--5-5-5--3-3-3-----------|
E|-3-3-3-3-3----------------------------|
       pm.       pm.    pm.

e|--------------------------------------|
B|--------------------------------------|
G|--------------------------------------|
D|------------7-------------------------|
A|-5-5-----5--5-------------------------|
E|-3-3-3-3-3----------------------------|
       pm.

[Punteo](1:09)
  Que de tu vida seas...
e|---------------------------------------|
B|---------------------------------------|
G|----4-7-5-4----------------------------|
D|-5-7-------7-5-4-------5---------------|
A|----------------5-4-3-2----------------|
E|---------------------------------------|

(1:11)
e|---------------------------------------|
B|---------------------------------------|
G|----------------4----------------------|
D|----------------2----------------------|
A|-4-4-4--4--4-4-4-----------------------|
E|-2-2-2--2--2-2-2-----------------------|

[Riff 1 x2](1:13)
e|------------------------------------------------------|
B|------------------------------------------------------|
G|------------------------------------------------------|
D|-7-9--9-9---------9-7-9---------9-9-7-7---------7-----|
A|-5-7--7-7-7-7-7-7-7-5-7-7-7-7-7-7-7-5-5-5-5-5-5-5-----|
E|------------------------------------------------------|
            Pm.....       Pm....         pm....

e|-----------------------------|
B|-----------------------------|
G|----------------------------*|
D|-------5--------7-----------*|
A|-3-3-3-3--5-5-5-5------------|
E|-----------------------------|
   pm...    pm...

[Riff 2](x2)
(1:28)
  Si acazo tu opinion...
e|--------------------------------------------------|
B|--------------------------------------------------|
G|------------------------------------------------*-|
D|-5-9---9-7--------5--------7--------------------*-|
A|-7-7---7-5--3-3-3-3--5-5-5-5----------------------|
E|--------------------------------------------------|
              PM...    PM...

[Riff1 x2]
(1:40)
  No todo es blanco...
e|------------------------------------------------------|
B|------------------------------------------------------|
G|------------------------------------------------------|
D|-7-9--9-9---------9-7-9---------9-9-7-7---------7-----|
A|-5-7--7-7-7-7-7-7-7-5-7-7-7-7-7-7-7-5-5-5-5-5-5-5-----|
E|------------------------------------------------------|
            Pm.....       Pm....         pm....

e|-----------------------------|
B|-----------------------------|
G|----------------------------*|
D|-------5--------7-----------*|
A|-3-3-3-3--5-5-5-5------------|
E|-----------------------------|
   pm...    pm...

[Acustico]
(1:54)
  He visto un manantial...
e|-0-0-0-0-0-0--0-0-0--3-3-3--0-0-0----|
B|-0-0-0-0-0-0--0-0-0--2-2-2--1-1-1----|
G|-0-0-0-0-0-0--0-0-0--3-3-3--0-0-0--*-|
D|-2-2-2-2-2-2--2-2-2--0-0-0--2-2-2--*-|
A|-2-2-2-2-2-2--2-2-2---------3-3-3----|
E|-0-0-0-0-0-0--0-0-0---------0-0-0----|

e|-0-0-0-0-0-0--0-0-0--3-3-3--0-0-0----|
B|-0-0-0-0-0-0--0-0-0--2-2-2--1-1-1----|
G|-0-0-0-0-0-0--0-0-0--3-3-3--0-0-0--*-|
D|-2-2-2-2-2-2--2-2-2--0-0-0--2-2-2--*-|
A|-2-2-2-2-2-2--2-2-2---------3-3-3----|
E|-0-0-0-0-0-0--0-0-0---------0-0-0----|

e|-3-3-3-3-3-3--3-3-3--3-3-3--0-0-0----|
B|-0-0-0-0-0-0--0-0-0--2-2-2--1-1-1----|
G|-0-0-0-0-0-0--0-0-0--3-3-3--0-0-0----|
D|-0-0-0-0-0-0--0-0-0--0-0-0--2-2-2----|
A|-2-2-2-2-2-2--2-2-2---------3-3-3----|
E|-3-3-3-3-3-3--3-3-3---------0-0-0----|

e|-3-3-3-3-3-3--3-3-3--3-3-3--0-0-0----|
B|-0-0-0-0-0-0--0-0-0--2-2-2--1-1-1----|
G|-0-0-0-0-0-0--0-0-0--3-3-3--0-0-0----|
D|-0-0-0-0-0-0--0-0-0--0-0-0--2-2-2----|
A|-2-2-2-2-2-2--2-2-2---------3-3-3----|
E|-3-3-3-3-3-3--3-3-3---------0-0-0----|

[Riff3 x2]
(2:08)
  Bebe danza sue?
e|--------------------------------------|
B|--------------------------------------|
G|--------------------------------------|
D|-9-------9---------7-------7-----5----|
A|-7-7-7-7-7-7-7-7-7-5-5-5-5-5-3-3-3----|
E|--------------------------------------|
     Pm...   Pm.....   Pm...   pm.

e|--------------------------------------|
B|--------------------------------------|
G|--------------------------------------|
D|-9-------9---------7-------7-----5----|
A|-7-7-7-7-7-7-7-7-7-5-5-5-5-5-3-3-3----|
E|--------------------------------------|
     Pm...   Pm.....   Pm...   pm.

e|--------------------------------------|
B|--------------------------------------|
G|--------------------------------------|
D|------------7------7------5-----------|
A|-5-5-----5--5--5-5-5--3-3-3-----------|
E|-3-3-3-3-3----------------------------|
       pm.       pm.    pm.

e|--------------------------------------|
B|--------------------------------------|
G|--------------------------------------|
D|------------7-------------------------|
A|-5-5-----5--5-------------------------|
E|-3-3-3-3-3----------------------------|
       pm.

[Punteo]
(2:21)
Que de tu vida seas...
e|---------------------------------------|
B|---------------------------------------|
G|----4-7-5-4----------------------------|
D|-5-7-------7-5-4-------5---------------|
A|----------------5-4-3-2----------------|
E|---------------------------------------|

[Riff 4](2:23)
e|---------------------------------------|
B|---------------------------------------|
G|---------------------------------------|
D|-9-9-9-9-9--9-9-9-9-7-9----------------|
A|-7-7-7-7-7--7-7-7-7-5-7----------------|
E|---------------------------------------|

e|---------------------------------------|
B|---------------------------------------|
G|---------------------------------------|
D|-9-9-9-9-9-7-5-5-5-7-5-4-4-------------|
A|-7-7-7-7-7-5-3-3-3-5-3-2-2-------------|
E|---------------------------------------|

e|---------------------------------------|
B|---------------------------------------|
G|---------------------------------------|
D|-9--7-9--9-7--5-5--5-7-----------------|
A|-7--5-7--7-5--3-3--5-7-----------------|
E|---------------------------------------|

[REKINTO]
(2:38)
e|-9-9-9-7-------7-----------------------|
B|--------10-9-10-10-9-10-9-7------------|
G|---------------------------------------|
D|---------------------------------------|
A|---------------------------------------|
E|---------------------------------------|

e|-9-9-9-7-------------------------------|
B|--------10-9-10-9-7~~------------------|
G|---------------------------------------|
D|---------------------------------------|
A|---------------------------------------|
E|---------------------------------------|

e|-9-9-9-7-------7-----------------------|
B|--------10-9-10-10-9-10-9-7------------|
G|---------------------------------------|
D|---------------------------------------|
A|---------------------------------------|
E|---------------------------------------|

e|---------7-----------------------------|
B|-7-7-9-10-10-9-10-9-7------------------|
G|---------------------------------------|
D|---------------------------------------|
A|---------------------------------------|
E|---------------------------------------|

e|---------------------------------------|
B|---------------------------------------|
G|---------------------------------------|
D|---------------------------------------|
A|---------------------------------------|
E|---------------------------------------|

[2:47]
e|-9-9-9-7-------7-----------------------|
B|--------10-9-10-10-9-10-9-7------------|
G|---------------------------------------|
D|---------------------------------------|
A|---------------------------------------|
E|---------------------------------------|

e|-9-9-9-7-------------------------------|
B|--------10-9-10-9-7~~------------------|
G|---------------------------------------|
D|---------------------------------------|
A|---------------------------------------|
E|---------------------------------------|

e|-9-9-9-7-------7-----------------------|
B|--------10-9-10-10-9-10-9-7------------|
G|---------------------------------------|
D|---------------------------------------|
A|---------------------------------------|
E|---------------------------------------|

e|---------7-----------------------------|
B|-7-7-9-10-10-9-10-9-7------------------|
G|---------------------------------------|
D|---------------------------------------|
A|---------------------------------------|
E|---------------------------------------|

[Solo]
(2:54)
[Acustico x2]
(3:08)
Aveces siento el despertar...
e|-0-0-0-0-0-0--0-0-0--3-3-3--0-0-0----|
B|-0-0-0-0-0-0--0-0-0--2-2-2--1-1-1----|
G|-0-0-0-0-0-0--0-0-0--3-3-3--0-0-0--*-|
D|-2-2-2-2-2-2--2-2-2--0-0-0--2-2-2--*-|
A|-2-2-2-2-2-2--2-2-2---------3-3-3----|
E|-0-0-0-0-0-0--0-0-0---------0-0-0----|

e|-0-0-0-0-0-0--0-0-0--3-3-3--0-0-0----|
B|-0-0-0-0-0-0--0-0-0--2-2-2--1-1-1----|
G|-0-0-0-0-0-0--0-0-0--3-3-3--0-0-0--*-|
D|-2-2-2-2-2-2--2-2-2--0-0-0--2-2-2--*-|
A|-2-2-2-2-2-2--2-2-2---------3-3-3----|
E|-0-0-0-0-0-0--0-0-0---------0-0-0----|

e|-3-3-3-3-3-3--3-3-3--3-3-3--0-0-0----|
B|-0-0-0-0-0-0--0-0-0--2-2-2--1-1-1----|
G|-0-0-0-0-0-0--0-0-0--3-3-3--0-0-0----|
D|-0-0-0-0-0-0--0-0-0--0-0-0--2-2-2----|
A|-2-2-2-2-2-2--2-2-2---------3-3-3----|
E|-3-3-3-3-3-3--3-3-3---------0-0-0----|

e|-3-3-3-3-3-3--3-3-3--3-3-3--0-0-0----|
B|-0-0-0-0-0-0--0-0-0--2-2-2--1-1-1----|
G|-0-0-0-0-0-0--0-0-0--3-3-3--0-0-0----|
D|-0-0-0-0-0-0--0-0-0--0-0-0--2-2-2----|
A|-2-2-2-2-2-2--2-2-2---------3-3-3----|
E|-3-3-3-3-3-3--3-3-3---------0-0-0----|

[Riff3 x2]
(3:36)
Bebe danza sue?
e|--------------------------------------|
B|--------------------------------------|
G|--------------------------------------|
D|-9-------9---------7-------7-----5----|
A|-7-7-7-7-7-7-7-7-7-5-5-5-5-5-3-3-3----|
E|--------------------------------------|
     Pm...   Pm.....   Pm...   pm.

e|--------------------------------------|
B|--------------------------------------|
G|--------------------------------------|
D|-9-------9---------7-------7-----5----|
A|-7-7-7-7-7-7-7-7-7-5-5-5-5-5-3-3-3----|
E|--------------------------------------|
     Pm...   Pm.....   Pm...   pm.

e|--------------------------------------|
B|--------------------------------------|
G|--------------------------------------|
D|------------7------7------5-----------|
A|-5-5-----5--5--5-5-5--3-3-3-----------|
E|-3-3-3-3-3----------------------------|
       pm.       pm.    pm.

e|--------------------------------------|
B|--------------------------------------|
G|--------------------------------------|
D|------------7-------------------------|
A|-5-5-----5--5-------------------------|
E|-3-3-3-3-3----------------------------|
       pm.

[Punteo]
(4:02)
(Que de tu vida seas...)
1|---------------------------------------|
2|---------------------------------------|
3|----4-7-5-4----------------------------|
4|-5-7-------7-5-4-------5---------------|
5|----------------5-4-3-2----------------|
6|---------------------------------------|

[Finn.]
(4:07)
e|---------------------------------------|
B|---------------------------------------|
G|---------------------------------------|
D|---------------------------------------|
A|-2-0-----------------------------------|
E|----3-0--------------------------------|

************************************

| *   Natural harmonic
| PM  Palm mute
| ~   Vibrato

************************************
Suggest correction
Give kudos to tab author, rate the tab!
1 2 3 4 5
comments
print report bad tab
guest
You may want to rate the tab now too:
select rating
Wanna post a correction for this tab? Suggest correction