Oops, an error
Loading. Please wait.

María Ines tab

by Hazel
17 views 1 this week
no commentswrite comment
1 2 3 4 5
3 more votes to show rating
add to favorites
×
Save as Personal and add changes to this tab that will be seen only by you. Learn more ›
×
You can save this tab as Personal to edit and correct it or add notes. All changes will be seen only by you. Learn more »
launch autoscroll
font size
0
reset
how to read this tab
guitar tuner
edit
Autoscroll
slow
fast
+/-
esc
set tempo
stop
Intro

                                         X4
e-5-5-5-----------------5-5-5-----------------
B-7-7-7-7-8-7-5-7--8-7--7-7-7-7-8-7-5-7--10-8-
G---------------------------------------------


D                                  A
Escribiré con la grimas de un corazón
                                       D
Y un bálsamo palas penas te quita el dolor
                                       A
Con una estopa en la mano la vi esa noche
                                           D
Con el cerebro desviarse se recargo en mi coche
Bm7     D  Bm7                D   A                 D
Oiga señor por unos cuantos pesooooos con usted me voy
G                       A    G        D
No tengo a nadie mucho menos donde vivir
G                       A   G      D
Estoy muy sola yo me llamo Maria Inés
                    A   G                 D
Por unos cuantos pesos déjeme estar con usted
                   A    G              D
Con unos cuantos besos yo le pago a usted

Acompañamiento
D G D A G D
                                        X2
e-5-5-5-----------------5-5-5-----------------
B-7-7-7-7-8-7-5-7--8-7--7-7-7-7-8-7-5-7--10-8-
G---------------------------------------------
       
e-10-10-10-----------10-10-10----------10-10-10-
B-10-10-10--7-8-7-5--10-10-10-7-8-7-5--10-10-10-
G-----------------------------------------------

e-5-8-10/12b-12-10-8-10--5-8-10/12b-12-10-8-10-
B----------------------------------------------

e-10-13-15/17b-17-15-13-15--10-13-15B-15-15-15B-
B-----------------------------------------------

         
e---10-10-10-----------10-10-10-10-10-
B---10-10-10--7-8-7-5--10-10-10-10-10-
G-------------------------------------
         
e----9--9--9---------------7-7-7------------
B---10-10-10-12-14-12-10---8-8-8-10-12-10-8-
G-------------------------------------------

                                             X2
e---5-5-5-----------------5-5-5-----------------
B---7-7-7-7-8-7-5-7--8-7--7-7-7-7-8-7-5-7--10-8-
G-----------------------------------------------


D                                A
Ella lo vio llorando no lo entendía
                                      D
Pues el señor cabizbajo sentía que moría
                                           A
Disculpe no es para tanto por que esas lagrimas
                                      D
Es que hace muchos años perdí a una hija
Bm7       D      Bm7             D   A
Estuve preso por más de quince años
               D  G                            A
Y ahora la busco   no se que hacer estoy muy triste
G         D G                        A G       D
Voy a morir  es morenita ella se llama Maria Inés
                     A     G           D
Por eso estoy llorando no lo puedo evitar
                 A G               D
Y seguiré llorando   no me perdonara

Acompañamiento
D G D A G D
                                            X2
e-5-5-5-----------------5-5-5-----------------
B-7-7-7-7-8-7-5-7--8-7--7-7-7-7-8-7-5-7--10-8-
G---------------------------------------------
      
e-10-10-10-----------10-10-10----------10-10-10-
B-10-10-10--7-8-7-5--10-10-10-7-8-7-5--10-10-10-
G-----------------------------------------------

e-5-8-10/12b-12-10-8-10--5-8-10/12b-12-10-8-10--
B-----------------------------------------------

e-10-13-15/17b-17-15-13-15--10-13-15B-15-15-15B-
B-----------------------------------------------
         
e---10-10-10-----------10-10-10-10-10-
B---10-10-10--7-8-7-5--10-10-10-10-10-
G-------------------------------------
       
e--9--9--9---------------7-7-7------------
B-10-10-10-12-14-12-10---8-8-8-10-12-10-8-
G-----------------------------------------

esto se toca hasta el final

    
e-5-5-5-----------------5-5-5-----------------
B-7-7-7-7-8-7-5-7--8-7--7-7-7-7-8-7-5-7--10-8-
G---------------------------------------------


B=Bend
/=Slide

dudas o comentarios ami correo camaras banda
puro rock urbano Yeah!

            
            
Suggest correction
Creating personal tab
Creating personal tab
You can edit any tab online and save it as your Personal.

You can edit, replace or remove any tab part or add personal notes – all changes will be seen only by you.

Personal tabs can be accessed anytime from any device, even offline.
Learn more »
Give kudos to tab author, rate the tab!
1 2 3 4 5
comments
print report bad tab
guest
Wanna post a correction for this tab? Suggest correction