Oops, an error
Loading. Please wait.

Estoy Pensando En Tí tab

by Hechizo
26 views 1 this week
no commentswrite comment
1 2 3 4 5
3 more votes to show rating
add to favorites
×
Save as Personal and add changes to this tab that will be seen only by you. Learn more ›
×
You can save this tab as Personal to edit and correct it or add notes. All changes will be seen only by you. Learn more »
launch autoscroll
font size
0
reset
how to read this tab
guitar tuner
edit
Autoscroll
slow
fast
+/-
esc
set tempo
stop
=Intro=
       G       -    Em     -      Am7     -      D      -
E--------------|---7-------|----8---------|----8--------|
B--8-10-8-7-8--|--8-8-7-8--|--10-10-8-10--|--10-10-8-7--|
G--------------|-----------|--------------|-------------|
D--------------|-----------|--------------|-------------|
A--------------|-----------|--------------|-------------|
E--------------|-----------|--------------|-------------|

       C      -          D          -      Am7     -    D
E--8-12-8-7-8-|---------10----------|---12---------|--12-10--|
B-------------|-10-12-13--12-10-8-7-|-13--13-12-13-|---------|
G-------------|---------------------|--------------|---------|
D-------------|---------------------|--------------|---------|
A-------------|---------------------|--------------|---------|
E-------------|---------------------|--------------|---------|

=Estrofa=
D         G            Em
DICES QUE SÓLO UNA AVENTURA,
             Am   C               D
QUE NO HAY ROMANCE, QUE NO HAY TERNURA.
           G                Em
PERO TE EXTRAÑO CUANDO NO ESTÁS,
         Am  C           D     C
ME HACES DAÑO CUANDO TE VAS...
                 Am         G D
SIENTO QUE NO ESTÁS Y TE EXTRAÑO.
Am         Am7 C             D
SI ES ESTO EL AMOR... YO TE AMO...

=CORO=
  G               C         D          G
ESTOY PENSANDO EN TI... CON LOS OJOS CERRADOS
  G             C           D    Am7 G
Y TÚ PIENSAS EN MÍ... QUE ESTOY ENAMORADO.
  G               C      D                G
ESTOY PENSANDO EN TI... ABRAZADO A MI ALMOHADA
  G             C    D      (Am7)      G
Y TÚ PIENSAS EN MÍ...  QUIERO SER TU MORADA,

C               D             G    G-G7-C
PORQUE ME HACES FALTA... CADA DÍA
C         D                G     G-G7-C
Y VIVO SOÑANDO... QUE ERES MÍA,
C            D              G     G-G7-C
PORQUE ME ALIMENTA... TU RECUERDO,
C           D              Am    C     D
ESPERO QUE VUELVAS... O ME PIEEEEEEEEERDO

  G               C         D          G
ESTOY PENSANDO EN TI... CON LOS OJOS CERRADOS
  G             C           D    (Am7)G
Y TÚ PIENSAS EN MÍ... QUE ESTOY ENAMORADO.
  G               C      D                G
ESTOY PENSANDO EN TI... ABRAZADO A MI ALMOHADA
  G             C    D      (Am7)      G
Y TÚ PIENSAS EN MÍ...  QUIERO SER TU MORADA...

=FINAL=
       G       -    Em     -      Am7     -      D      -
E--------------|---7-------|----8---------|----8--------|
B--8-10-8-7-8--|--8-8-7-8--|--10-10-8-10--|--10-10-8-7--|
G--------------|-----------|--------------|-------------|
D--------------|-----------|--------------|-------------|
A--------------|-----------|--------------|-------------|
E--------------|-----------|--------------|-------------|

       Am7    -          D          -      C       -      D     -
E--8-12-8-7-8-|---------10----------|---12---------|-12-10------|
B-------------|-10-12-13--12-10-8-7-|-13--13-12-13-|-------10-8-|
G-------------|---------------------|--------------|------------|
D-------------|---------------------|--------------|------------|
A-------------|---------------------|--------------|------------|
E-------------|---------------------|--------------|------------|

        Am*       -   D   ...D  ...G
E--11-15-11-10-11--|--10--|
B------------------|------|   AH AH AH
G------------------|------|
D------------------|------|
A------------------|------|
E------------------|------|

============================== FIN ==============================

ALGUNAS INDICACIONES:

C = DO
D = RE
E = MI
F = FA
G = SOL
A = LA
B = SI

m = acorde menor
(EJEMPLO: Em = Mi menor)

POSTURAS:

 ====Am*====    ====Am7====   =====G=====   =====C=====
 E B G D A E    E B G D A E   E B G D A E   E B G D A E
 X | | | O |    X | | | O |   | | | | | |   X | | | O |
 X | O O | |    X | O | | |   | O | | | |   X | O | | |
 X | | | | O    X | | | | |   O | | | | O   X O | | | |
 X | | | | |    X | | | | |   | | | | | |   X | | | | |

 =====D=====    ====Am=====   ====Em=====   ====D7=====
 E B G D A E    E B G D A E   E B G D A E   E B G D A E
 X X | | | |    X | | | O |   | | | | | |   X X | | O |
 X X | O | O    X | O O | |   | O O | | |   X X | O | O
 X X | | O |    X | | | | |   | | | | | |   X X | | | |
 X X | | | |    X | | | | |   | | | | | |   X X | | | |

Lo círculos indican la CUERDA y TRASTE donde se pulsa el acorde,
Las X señalan que NO se pulsa la(s) cuerda(s) indicada(s).
Cualquier duda que tengan escríbanme a rodrymicky@ y
ojalá que les guste esta cumbia tanto como a mí, ¡Grande Hechizo!
Difrútenla cabros... y un saludo pal Marco,Joc,Simón,Aarón,Yesleine,
Karen,Claudia,Laura,al Grupo Sweet Revenge a su vocalbajita mi primo
Jonathan y un besito pa' mi pierna  te quiero mucho bebé.'

           En memoria de Andrea Susana Muñoz Alarcón
             (*Abril 20,1989 - Diciembre 10,2005+)
      'Que el Señor te tenga en la gloria hermanita mía'

                   'Que el Señor les Bendiga'
Feb.16, 2005                                  ...El Último Romántico
=========================

            
            
Suggest correction
Creating personal tab
Creating personal tab
You can edit any tab online and save it as your Personal.

You can edit, replace or remove any tab part or add personal notes – all changes will be seen only by you.

Personal tabs can be accessed anytime from any device, even offline.
Learn more »
Give kudos to tab author, rate the tab!
1 2 3 4 5
comments
print report bad tab
guest
Wanna post a correction for this tab? Suggest correction