Oops, an error
Loading. Please wait.

Aires De Navidad tab

437 views 9 this week
no commentswrite comment
1 2 3 4 5
3 more votes to show rating
add to favorites
×
Save as Personal and add changes to this tab that will be seen only by you. Learn more ›
×
You can save this tab as Personal to edit and correct it or add notes. All changes will be seen only by you. Learn more »
launch autoscroll
font size
0
reset
how to read this tab
guitar tuner
edit
Autoscroll
slow
fast
+/-
esc
set tempo
stop
Héctpr Lavoe y Willie Colón. Asalto de navidad!!!

Intro: G

                             F E
Ya van a empezar las fiestas
                   Am
las fiestas de navidad
     D
y el jibarito cantando
                    G
a todos nos va alegrar.
                          F E
Vamos a que no recuerdan
                 Am
el más remoto rincón
      D
se escucha al jibarito
                     G
cantando su inspiración.


Gm - F - D# - D

e|----------10-----------------
B|-------11----13-11-10-13-11--
G|-11-12-----------------------
D|-----------------------------
A|-----------------------------
E|-----------------------------

e|---------------------------------------|
B|-8---8-------7-------------------------|
G|---7---5-6-7---7-5-7-8-5---7-----5-3---|
D|-------------------------8---8-7-----5-|
A|---------------------------------------|
E|---------------------------------------|


Gm     F         D#    D
Felicitarles ahora queremos
Gm        F     D#   D
   con tono de devoción
                  Gm
le deseamos feliz año
       F           D#    D      G
la orquesta de Willie Colón.


*CORO*
                    F E                        Am
Se acerca la navidad,   y a todos nos va a alegrar
    D                               G
el jibarito cantando aires de felicidad.


e|----------6---5.-8---------10-13-11-10----11--
B|-----7-8.---8------10-11---------------13-----
G|-7-9------------------------------------------
D|----------------------------------------------
A|----------------------------------------------
E|----------------------------------------------

e|-------------------------10-|
B|-13-11-13-11-10-------10----|
G|----------------12-11-------|
D|----------------------------|
A|----------------------------|
E|----------------------------|


Gm  F   A            Cm       D
Lo lai le lo le, lo lai le lo la
Gm        F       A        Cm        D
aunque usted no quiera le vengo a cantar.
Gm     F    A     Cm          D
Y a felicitar con voz de alegría
     Gm   F    A       Cm       D
yo traigo armonía a su santo hogar
        Gm   F    A       Cm       D
que yo traigo armonía a su santo hogar.


*CORO*


e|-----------7-----8.-------------5-----8.--
B|-----7-8.----8---------8----------7-------
G|-7-9-----------7-----9---5-6-7------7-----
D|------------------------------------------
A|------------------------------------------
E|------------------------------------------

G - C - D - C (x2)
e|-------------7-----8.-------------5-----8.-|
B|-------7-8.----8---------8----------7------|
G|-7-8-9-----------7-----9---5-6-7------7----|
D|-------------------------------------------|
A|-------------------------------------------|
E|-------------------------------------------|


G         C        D
Un veinticinco nació
G            C        D
y fue en el mes de diciembre
         C       G
en un humilde pesebre
            C       D
la luz del mundo llegó.


G - C - D - C (x2)

G     C           D
Y con esta me despido
 G   C             D
como esto es devoción
          C        G
que pasen un feliz año
     C            D
les deseo de corazón.


G - C - D - C
         asalto de navidad...


                   --------
                º-| ¤    ¤ |-º
                º-|  LuïS  |-º
                º-| ¤    ¤ |-º
                          /
                    |    |
        ·===========================·
        | luis_6cuerdas@ |
        |        Lima - Perú        |
        ·===========================·

*Si hubiese algún error o alguna duda, escribe al mail o avisa por MSN*

            
            
Suggest correction
Creating personal tab
Creating personal tab
You can edit any tab online and save it as your Personal.

You can edit, replace or remove any tab part or add personal notes – all changes will be seen only by you.

Personal tabs can be accessed anytime from any device, even offline.
Learn more »
Give kudos to tab author, rate the tab!
1 2 3 4 5
comments
print report bad tab
guest
Wanna post a correction for this tab? Suggest correction