Oops, an error
Loading. Please wait.

Calle Luna, Calle Sol bass

420 views 6 this week
no commentswrite comment
1 2 3 4 5
3 more votes to show rating
add to favorites
×
Save as Personal and add changes to this tab that will be seen only by you. Learn more ›
×
You can save this tab as Personal to edit and correct it or add notes. All changes will be seen only by you. Learn more »
launch autoscroll
font size
0
reset
guitar tuner
edit
Autoscroll
slow
fast
+/-
esc
set tempo
stop
Hola amigos, estoy de vuelta. Esta es una canción que llevo escuchando
desde pequeño y creo que Héctor Lavoe no sería Héctor Lavoe
si no interpretara esta canción. Cada ciudad de América y del mundo
tiene más de una calle así...

INTRO

El mítico solo de piano-bajo (4X):

G -----------------------------|
D -10--------------------------|
A ----10-----11--------10------|
E --------11----11--10---------|

Con los metales :

G ---------------|
D ---------------|
A ---10-10-------| (4X)
E -8-------------|

G ----------------|
D ----------------|
A -8-----8---8----|
E ---8-8---8------|

G -----------------------|
D ----13-------13-13-----|
A -12-------12-----------| (2X)*
E -------12----------12--|

G --------|
D --------|
A -11-----|
E ----8---|

Luego vuelves a tocar desde el principio, con la diferencia que
en * se toca una vez, y a continuación:

G ----------|
D ----------|
A -------11-|
E -11-11----|

Canción (Se toca una vez cada estrofa, es decir, tres veces):

"Mete la mano en el bolsillo
saca y abre tu cuchillo y ten cuidao"...

G ---------------------------------------|
D ----14--------12---11---10-----10------|
A -12----12--10----9----8------8----8----|
E ---------------------------8-----------|

"Pónganme oido en este barrio
muchos guapos lo han matao"...

G -------------------------------------------|
D -------------------------------------------|
A ----13---------12----11----10-10----10-10--|
E -11----11--10------9-----8--------8--------|

"Calle luna calle sol"...

G ----------------------------------|
D ------------------10--------------|
A -8-10----------10------8-10-------|
E ------8---8-11---------------8----|


"Oiga señor si usted quiere su vida
evitar es mejor o la tienes perdida"... (son notas largas)


G -----------8-------------------------|
D -10-----8----10------8-----8---------|
A ----10-----------10-----11---11-10---|
E -------------------------------------|

Pre-coro (4X)

G -----------------------------------|
D -10-10-10-------9-10---------------|
A -----------8-10-------8--10-10-10--|
E -----------------------------------|

Después de la cuarta vez:

G --------------------------------------|
D -8-8-8-----------8-10-----------------|
A --------11-11-11-------10--8-8--10----|
E -----------------------------------8--|

Coro (Varias veces):

"Camina pa'lante no mires para el'lao"...

G -------------------|
D -------------10----|
A -8----10--------10-|
E ---11-----8--------|

Final (8X):

G ------------------------------|
D ------10--------8-10----------|
A -8-11----8-8-10------10-10----|
E ------------------------------|

Y listo!!! Es fácilícima y sabrosa de tocar. Cualquier duda u opinión
escriban. Tiene sus detallitos, pero está bien completa. Nos veremos
en otra oportunidad. ¡¡¡HASTA LA PRÓXIMA!!!
Suggest correction
Creating personal tab
Creating personal tab
You can edit any tab online and save it as your Personal.

You can edit, replace or remove any tab part or add personal notes – all changes will be seen only by you.

Personal tabs can be accessed anytime from any device, even offline.
Learn more »
Give kudos to tab author, rate the tab!
1 2 3 4 5
comments
print report bad tab
guest
Wanna post a correction for this tab? Suggest correction