Oops, an error
Loading. Please wait.

Cheche Cole bass

233 views 3 this week
no commentswrite comment
1 2 3 4 5
2 more votes to show rating
add to favorites
×
Save as Personal and add changes to this tab that will be seen only by you. Learn more ›
×
You can save this tab as Personal to edit and correct it or add notes. All changes will be seen only by you. Learn more »
launch autoscroll
font size
0
reset
guitar tuner
edit
Autoscroll
slow
fast
+/-
esc
set tempo
stop
Un clásico que el propio Héctor Lavoe recordaba con mucho
cariño.

Intro:

G -----3-3--5-5--3--3-5-5---|
D -3-3----------------------|
A --------------------------| (6 Veces)
E --------------------------|

Canción:

"Vamos todos a bailar, al estilo africano. Si no lo sabes
bailar, yo te enseñaré mi hermano..."

G -----------------2-0--|
D -3-------0------------|
A ----3-1-----3-3-------| (2 Veces)
E ----------------------|

"A ti te gusta la bomba, y te gusta el baquiné, para que
goces ahorea africano es el bembé..."

G -----------------2-0--|
D -3-------0------------|
A ----3-1-----3-3-------|
E ----------------------|

G ---------------------------|
D -3-------0---------0-2-3---|
A ----3-1-----3-3-3----------|
E ---------------------------|

Coro:

"Che Che colé... ¡¡qué bueno es!!"

G -2-------2-----|
D ------3----3---|
A ---3-----------|
E ---------------|

"Che Che cofriza... muerto e' la risa..."

G -------0--|
D ----2-----|
A -3--------| (2 Veces)
E ----------|

"Coquin saranga... Ahí viene la malanga.."

G ----------|
D ----0-3---|
A -1--------| (2 veces)
E ----------|

"Caca chiranga... viene de Katanga..."

G ----------|
D ----0-3---|
A -1--------|
E ----------|

G -------0--|
D ----2-----|
A -3--------|
E ----------|

G -----2-5--|
D --3-------|
A ----------| (2 Veces)
E ----------|

Se vuelve a tocar el coro una vez más.

La segunda estrofa sigue la secuencia

Intro (2 veces se toca el riff)/Canción (Con la misma secuencia)/
Coro (ídem)

Solo de trombones

G -----3-5--|
D --3-------|
A ----------| (Notas largas)
E ----------|

G --------------|
D -3-5--5----3--|
A ---------3----|
E --------------|

Intro (2 veces se toca el riff)/Canción (Con la misma secuencia)/
Coro (hasta hacer fade out)

Es facilícima!!! Cualquier duda u opinión, no duden en
escribir... ¡¡¡Hasta la próxima!!!
Suggest correction
Creating personal tab
Creating personal tab
You can edit any tab online and save it as your Personal.

You can edit, replace or remove any tab part or add personal notes – all changes will be seen only by you.

Personal tabs can be accessed anytime from any device, even offline.
Learn more »
Give kudos to tab author, rate the tab!
1 2 3 4 5
comments
print report bad tab
guest
Wanna post a correction for this tab? Suggest correction