Oops, an error
Loading. Please wait.

La Murga bass

707 views 3 this week
no commentswrite comment
1 2 3 4 5
1 last vote to show rating
add to favorites
×
Save as Personal and add changes to this tab that will be seen only by you. Learn more ›
×
You can save this tab as Personal to edit and correct it or add notes. All changes will be seen only by you. Learn more »
launch autoscroll
font size
0
reset
guitar tuner
edit
Autoscroll
slow
fast
+/-
esc
set tempo
stop
Uno de los temas más esperados por los bajistas amantes de la
salsa

Intro (Se toca después de dejar tocar dos veces el trombón):

G -----------------------|
D ------7----------------|
A --5-8----------4-7-5---| (2 veces)
E ---------5--5----------|

Canción (Después de tocar esta parte 2 veces, viene
"Vamos a bailar la Murga. La Murga de Panamá.
Los muchachos se alborotan, cuando la ven caminar"...)

G ---------------------------------|
D -----7---------------------------|
A -5-8------7-7------4-7-5-----5---| (4 veces)
E --------5------5-5-------5-5-----|

"Ey, vamos a bailar la Murga, la Murga de Panamá.
Esto es una cosa fácil y muy buena pa' bailar":

G ----------------------------|
D ----------------------------|
A -----7-----7-----5-----5----| (2 veces)
E -5-5---5-5---5-5---5-5------|

Luego vuelves a tocar:

"Vamos a bailar la Murga. La Murga de Panamá.
Los muchachos se alborotan, cuando la ven caminar":

G ---------------------------------|
D -----7---------------------------|
A -5-8------7-7------4-7-5-----5---| (4 veces)
E --------5------5-5-------5-5-----|

"AYY!!! tu tienes un caminao, que me tiene trastornao.
Y cuando bailas la Murga, ¡¡¡oye mamita que buena estás!!!

G ---------------------------------|
D -----7---------------------------|
A -5-8------7-7------4-7-5-----5---| (4 veces)
E --------5------5-5-------5-5-----|

Solo de trombones:

G ---------------------------------|
D -----7---------------------------|
A -5-8------7-7------4-7-5-----5---| (4 veces)
E --------5------5-5-------5-5-----|

Fin del solo de trombones:

G ----------------------------|
D ----------------------------|
A -----5-----7-----7-----5----| (2 veces)
E -5-5---5-5---5-5---5-5------|

"Murga pa' quí, Murga pa' llá"
(Varias veces se toca, incluye el solo de cuatro):

G -------------------------------|
D -------------------------------|
A -----7-7----7-7-5-----5--------|
E -5-5------5-------5-5---5-5----|

Solo de trombones/Fin del solo de trombones

"Murga pa' quí, Murga pa' llá.."

Solo de trmbones/Fin del solo de trombones/
Final de la canción

Es todo amgos. Se vale la improvisación. Espero que la
disfruten. Feliz Navidad. Dios los guarde
y ¡¡¡HASTA LA PRÓXIMA!!!

            
            
Suggest correction
Creating personal tab
Creating personal tab
You can edit any tab online and save it as your Personal.

You can edit, replace or remove any tab part or add personal notes – all changes will be seen only by you.

Personal tabs can be accessed anytime from any device, even offline.
Learn more »
Give kudos to tab author, rate the tab!
1 2 3 4 5
comments
print report bad tab
guest
Wanna post a correction for this tab? Suggest correction