Oops, an error
Loading. Please wait.

El Verdugo De Tus Sueños tab

8 views 1 this week
no commentswrite comment
1 2 3 4 5
3 more votes to show rating
add to favorites
×
Save as Personal and add changes to this tab that will be seen only by you. Learn more ›
×
You can save this tab as Personal to edit and correct it or add notes. All changes will be seen only by you. Learn more »
launch autoscroll
font size
0
reset
how to read this tab
guitar tuner
edit
Autoscroll
slow
fast
+/-
esc
set tempo
stop
Las guitarras en este tema están afinadas con la segunda cuerda en A.

e|---------------------------------------------------------------------|
A|---------------------------------------------------------------------|
G|-----------2pO----O----O-----------O---------------------2-----------|
D|----------------------------4pO---------Oh2pO------------------------|
A|--------------------------------------------------3pO----------------|
E|---------------------------------------------------------------------|

e|---------------------------------------------------------------------|
B|---------------------------------------------------------------------|
G|-------2pO----O----O------------O------------------------------------|
D|------------------------4pO----------Oh2pO---------Oh1pO-------------|
A|---------------------------------------------3pO-----------3pO-------|
E|---------------------------------------------------------------------|

e|---------------------------------------------------------------------|
A|---------------------------------------------------------------------|
G|-----------2pO----O----O-----------O---------------------2-----------|
D|----------------------------4pO---------Oh2pO------------------------|
A|--------------------------------------------------3pO----------------|
E|---------------------------------------------------------------------|

e|---------------------------------------------------------------------|
A|---------------------------------------------------------------------|
G|-----------2pO----O----O-----------O---------------------2-----------|
D|----------------------------4pO---------Oh2pO------------------------|
A|--------------------------------------------------3pO----------------|
E|---------------------------------------------------------------------|


e|-O---O-O-O-O-O-O--O---O-O-O-O-O-O-O--O---0-0-0-0-2-O--O---O-O-O-O-O--|
A|-O---O-O-O-O-O-O--O---O-O-O-O-O-O-O--O---O-O-O-O-2-O--O---O-O-O-O-O--|
G|-Oh2-2-2-2-2-2-2--Oh2-2-2-2-2-2-2-2--Oh2-2-2-2-2-2-2--Oh2-2-2-2-2-2--|
D|-Oh2-2-2-2-2-2-2--Oh2-2-2-2-2-2-2-2--Oh2-2-2-2-2-2-2--Oh2-2-2-2-2-2--|
A|-O---O-O-O-O-0-O--O---O-O-O-O-O-O-0--O---O-O-O-O-O-O--O---O-O-O-O-0--|
E|---------------------------------------------------------------------|

No soy el verdugo de tus sueños

e|-O---O-O-O-O-O-O--O---O-O-O-O-O-O-O--O---O-O-O-O-O-O--O---O-O-O-O-O--|
A|-O---O-O-O-O-O-O--O---O-O-O-O-O-O-O--O---O-O-O-O-O-O--O---O-O-O-O-O--|
G|-Oh2-2-2-2-2-2-2--Oh2-2-2-2-2-2-2-2--Oh2-2-2-2-2-2-2--Oh2-2-2-2-2-2--|
D|-Oh2-2-2-2-2-2-2--Oh2-2-2-2-2-2-2-2--Oh2-2-2-2-2-2-2--Oh2-2-2-2-2-2--|
A|-O---O-O-O-O-O-O--O---O-O-O-O-O-O-0--O---O-O-O-O-O-O--O---O-O-O-O-0--|
E|---------------------------------------------------------------------|

Pero debo confesar que me gustaría serlo

e|-O-O-O-O--O-O-O-O--O-O-O-O--O-O-O-O--O---O-O-O-O-O-O--O---O-O-O-O-O--|
A|-O-O-O-O--O-O-O-O--O-O-O-O--O-O-O-O--O---O-O-O-O-O-O--O---O-O-O-O-O--|
G|-2-2-2-2--4-4-4-4--2-2-2-2--4-4-4-4--Oh2-2-2-2-2-2-2--Oh2-2-2-2-2-2--|
D|-3-3-3-3--5-5-5-5--3-3-3-3--5-5-5-5--Oh2-2-2-2-2-2-2--Oh2-2-2-2-2-2--|
A|-3-3-3-3--5-5-5-5--3-3-3-3--5-5-5-5--O---O-O-O-O-O-O--O---O-O-O-O-O--|
E|-1-1-1-1--3-3-3-3--1-1-1-1--3-3-3-3----------------------------------|

No voy a fingir que soy tu dueño

e|--O--3--O--O-O-O--O---O-O-O-O-O-O-O--O---O-O-O-O-O-O--O---O-O-O-O-O--|
A|--O--O--O--O-O-O--O---O-O-O-O-O-O-O--O---O-O-O-O-O-O--O---O-O-O-O-O--|
G|--2--O--3--2-2-2--Oh2-2-2-2-2-2-2-2--Oh2-2-2-2-2-2-2--Oh2-2-2-2-2-2--|
D|--2--O--O--2-2-2--Oh2-2-2-2-2-2-2-2--Oh2-2-2-2-2-2-2--Oh2-2-2-2-2-2--|
A|--O--X-----O-O-O--O---O-O-O-O-O-O-O--O---O-O-O-O-O-O--O---O-O-O-O-O--|
E|-----3---------------------------------------------------------------|

Pero debo confesar que me gustaria serlo

e|-O-O-O-O--O-O-O-O--O-O-O-O--O-O-O-O--O---O-O-O-O-O-O--O---O-O-O-O-O--|
A|-O-O-O-O--O-O-O-O--O-O-O-O--O-O-O-O--O---O-O-O-O-O-O--O---O-O-O-O-O--|
G|-2-2-2-2--4-4-4-4--2-2-2-2--4-4-4-4--Oh2-2-2-2-2-2-2--Oh2-2-2-2-2-2--|
D|-3-3-3-3--5-5-5-5--3-3-3-3--5-5-5-5--Oh2-2-2-2-2-2-2--Oh2-2-2-2-2-2--|
A|-3-3-3-3--5-5-5-5--3-3-3-3--5-5-5-5--O---O-O-O-O-O-O--O---O-O-O-O-O--|
E|-1-1-1-1--3-3-3-3--1-1-1-1--3-3-3-3----------------------------------|

Para tomar de tu piel

e|-------O------O-O-O-O-O-O-O-O-O------O------O---O-O-O-O-O-O-O-O------|
A|-------O------O-O-O-O-O-O-O-O-O------O------O---O-O-O-O-O-O-O-O------|
G|-------O------O-O-O-O-O-O-O-O-O------O------Oh2-2-2-2-2-2-2-2-2------|
D|-------2------4-4-4-4-4-4-4-4-4------2------Oh2-2-2-2-2-2-2-2-2------|
A|-------3------5-5-5-5-5-5-5-5-5------3------O---O-O-O-O-O-O-O-O------|
E|---------------------------------------------------------------------|

Para tomar de tu sangre

e|-------O------O-O-O-O-O-O-O-O-O------O------O---O-O-O-O-O-O-O-O------|
A|-------O------O-O-O-O-O-O-O-O-O------O------O---O-O-O-O-O-O-O-O------|
G|-------O------O-O-O-O-O-O-O-O-O------O------Oh2-2-2-2-2-2-2-2-2------|
D|-------2------4-4-4-4-4-4-4-4-4------2------Oh2-2-2-2-2-2-2-2-2------|
A|-------3------5-5-5-5-5-5-5-5-5------3------O---O-O-O-O-O-O-O-O------|
E|---------------------------------------------------------------------|

Para poder levantarme

e|------O------O-O-O-O-O-O-O-O-O------O-O-O-O-O-O------O-O-O-O-O-O-----|
A|------O------O-O-O-O-O-O-O-O-O------O-O-O-O-O-O------O-O-O-O-O-O-----|
G|------O------O-O-O-O-O-O-O-O-O------2-2-2-2-2-2------4-4-4-4-4-4-----|
D|------2------4-4-4-4-4-4-4-4-4------3-3-3-3-3-3------5-5-5-5-5-5-----|
A|------3------5-5-5-5-5-5-5-5-5------3-3-3-3-3-3------5-5-5-5-5-5-----|
E|------------------------------------1-1-1-1-1-1------3-3-3-3-3-3-----|

Para volver a caer

e|--------O-O-O-O-O-O------O-O-O-O-O-O---------------------------------|
A|--------O-O-O-O-O-O------O-O-O-O-O-O---------------------------------|
G|--------2-2-2-2-2-2------4-4-4-4-4-4---------------------------------|
D|--------3-3-3-3-3-3------5-5-5-5-5-5---------------------------------|
A|--------3-3-3-3-3-3------5-5-5-5-5-5---------------------------------|
E|--------1-1-1-1-1-1------3-3-3-3-3-3---------------------------------|

e|-----------O-O-O-----------O-----------O-O-O------------O------------|
A|-----------O-O-O-----------O-----------O-O-O------------O------------|
G|-----------O-O-O-----------O-----------O-O-O------------O------------|
D|-----------4-4-4-----------2-----------4-4-4------------2------------|
A|-----------5-5-5-----------3-----------5-5-5------------3------------|
E|---------------------------------------------------------------------|

e|-O---O-O-O-O-O-O--O---O-O-O-O-O-O-O--O---0-0-0-0-2-O--O---O-O-O-O-O--|
A|-O---O-O-O-O-O-O--O---O-O-O-O-O-O-O--O---O-O-O-O-2-O--O---O-O-O-O-O--|
G|-Oh2-2-2-2-2-2-2--Oh2-2-2-2-2-2-2-2--Oh2-2-2-2-2-2-2--Oh2-2-2-2-2-2--|
D|-Oh2-2-2-2-2-2-2--Oh2-2-2-2-2-2-2-2--Oh2-2-2-2-2-2-2--Oh2-2-2-2-2-2--|
A|-O---O-O-O-O-0-O--O---O-O-O-O-O-O-0--O---O-O-O-O-O-O--O---O-O-O-O-0--|
E|---------------------------------------------------------------------|

Nunca me verás en cautiverio

e|-O---O-O-O-O-O-O--O---O-O-O-O-O-O-O--O---0-0-0-0-2-O--O---O-O-O-O-O--|
A|-O---O-O-O-O-O-O--O---O-O-O-O-O-O-O--O---O-O-O-O-2-O--O---O-O-O-O-O--|
G|-Oh2-2-2-2-2-2-2--Oh2-2-2-2-2-2-2-2--Oh2-2-2-2-2-2-2--Oh2-2-2-2-2-2--|
D|-Oh2-2-2-2-2-2-2--Oh2-2-2-2-2-2-2-2--Oh2-2-2-2-2-2-2--Oh2-2-2-2-2-2--|
A|-O---O-O-O-O-0-O--O---O-O-O-O-O-O-0--O---O-O-O-O-O-O--O---O-O-O-O-0--|
E|---------------------------------------------------------------------|

Pero debo confesar que te gustaria verlo

e|-O-O-O-O--O-O-O-O--O-O-O-O--O-O-O-O--O---O-O-O-O-O-O--O---O-O-O-O-O--|
A|-O-O-O-O--O-O-O-O--O-O-O-O--O-O-O-O--O---O-O-O-O-O-O--O---O-O-O-O-O--|
G|-2-2-2-2--4-4-4-4--2-2-2-2--4-4-4-4--Oh2-2-2-2-2-2-2--Oh2-2-2-2-2-2--|
D|-3-3-3-3--5-5-5-5--3-3-3-3--5-5-5-5--Oh2-2-2-2-2-2-2--Oh2-2-2-2-2-2--|
A|-3-3-3-3--5-5-5-5--3-3-3-3--5-5-5-5--O---O-O-O-O-O-O--O---O-O-O-O-O--|
E|-1-1-1-1--3-3-3-3--1-1-1-1--3-3-3-3----------------------------------|

No pretenderás enloquecerme

e|-O---O-O-O-O-O-O--O---O-O-O-O-O-O-O--O---0-0-0-0-2-O--O---O-O-O-O-O--|
A|-O---O-O-O-O-O-O--O---O-O-O-O-O-O-O--O---O-O-O-O-2-O--O---O-O-O-O-O--|
G|-Oh2-2-2-2-2-2-2--Oh2-2-2-2-2-2-2-2--Oh2-2-2-2-2-2-2--Oh2-2-2-2-2-2--|
D|-Oh2-2-2-2-2-2-2--Oh2-2-2-2-2-2-2-2--Oh2-2-2-2-2-2-2--Oh2-2-2-2-2-2--|
A|-O---O-O-O-O-0-O--O---O-O-O-O-O-O-0--O---O-O-O-O-O-O--O---O-O-O-O-0--|
E|---------------------------------------------------------------------|

Pero debo confesar sentí placer igual

e|-O-O-O-O--O-O-O-O--O-O-O-O--O-O-O-O--O---O-O-O-O-O-O--O---O-O-O-O-O--|
A|-O-O-O-O--O-O-O-O--O-O-O-O--O-O-O-O--O---O-O-O-O-O-O--O---O-O-O-O-O--|
G|-2-2-2-2--4-4-4-4--2-2-2-2--4-4-4-4--Oh2-2-2-2-2-2-2--Oh2-2-2-2-2-2--|
D|-3-3-3-3--5-5-5-5--3-3-3-3--5-5-5-5--Oh2-2-2-2-2-2-2--Oh2-2-2-2-2-2--|
A|-3-3-3-3--5-5-5-5--3-3-3-3--5-5-5-5--O---O-O-O-O-O-O--O---O-O-O-O-O--|
E|-1-1-1-1--3-3-3-3--1-1-1-1--3-3-3-3----------------------------------|

Para tomar de tu piel

e|-------O------O-O-O-O-O-O-O-O-O------O------O---O-O-O-O-O-O-O-O------|
A|-------O------O-O-O-O-O-O-O-O-O------O------O---O-O-O-O-O-O-O-O------|
G|-------O------O-O-O-O-O-O-O-O-O------O------Oh2-2-2-2-2-2-2-2-2------|
D|-------2------4-4-4-4-4-4-4-4-4------2------Oh2-2-2-2-2-2-2-2-2------|
A|-------3------5-5-5-5-5-5-5-5-5------3------O---O-O-O-O-O-O-O-O------|
E|---------------------------------------------------------------------|

Para tomar de tu sangre

e|-------O------O-O-O-O-O-O-O-O-O------O------O---O-O-O-O-O-O-O-O------|
A|-------O------O-O-O-O-O-O-O-O-O------O------O---O-O-O-O-O-O-O-O------|
G|-------O------O-O-O-O-O-O-O-O-O------O------Oh2-2-2-2-2-2-2-2-2------|
D|-------2------4-4-4-4-4-4-4-4-4------2------Oh2-2-2-2-2-2-2-2-2------|
A|-------3------5-5-5-5-5-5-5-5-5------3------O---O-O-O-O-O-O-O-O------|
E|---------------------------------------------------------------------|

Para poder levantarme

e|------O------O-O-O-O-O-O-O-O-O------O-O-O-O-O-O------O-O-O-O-O-O-----|
A|------O------O-O-O-O-O-O-O-O-O------O-O-O-O-O-O------O-O-O-O-O-O-----|
G|------O------O-O-O-O-O-O-O-O-O------2-2-2-2-2-2------4-4-4-4-4-4-----|
D|------2------4-4-4-4-4-4-4-4-4------3-3-3-3-3-3------5-5-5-5-5-5-----|
A|------3------5-5-5-5-5-5-5-5-5------3-3-3-3-3-3------5-5-5-5-5-5-----|
E|------------------------------------1-1-1-1-1-1------3-3-3-3-3-3-----|

Para volver a caer

e|--------O-O-O-O-O-O------O-O-O-O-O-O---------------------------------|
A|--------O-O-O-O-O-O------O-O-O-O-O-O---------------------------------|
G|--------2-2-2-2-2-2------4-4-4-4-4-4---------------------------------|
D|--------3-3-3-3-3-3------5-5-5-5-5-5---------------------------------|
A|--------3-3-3-3-3-3------5-5-5-5-5-5---------------------------------|
E|--------1-1-1-1-1-1------3-3-3-3-3-3---------------------------------|

e|-----------O-O-O-----------O-----------O-O-O------------O------------|
A|-----------O-O-O-----------O-----------O-O-O------------O------------|
G|-----------O-O-O-----------O-----------O-O-O------------O------------|
D|-----------4-4-4-----------2-----------4-4-4------------2------------|
A|-----------5-5-5-----------3-----------5-5-5------------3------------|
E|---------------------------------------------------------------------|

e|-O---O-O-O-O-O-O--O---O-O-O-O-O-O-O--O---0-0-0-0-2-O--O---O-O-O-O-O--|
A|-O---O-O-O-O-O-O--O---O-O-O-O-O-O-O--O---O-O-O-O-2-O--O---O-O-O-O-O--|
G|-Oh2-2-2-2-2-2-2--Oh2-2-2-2-2-2-2-2--Oh2-2-2-2-2-2-2--Oh2-2-2-2-2-2--|
D|-Oh2-2-2-2-2-2-2--Oh2-2-2-2-2-2-2-2--Oh2-2-2-2-2-2-2--Oh2-2-2-2-2-2--|
A|-O---O-O-O-O-0-O--O---O-O-O-O-O-O-0--O---O-O-O-O-O-O--O---O-O-O-O-0--|
E|---------------------------------------------------------------------|

e|---------------------------------------------------------------------|
A|---------------------------------------------------------------------|
G|-----------2pO----O----O-----------O---------------------2-----------|
D|----------------------------4pO---------Oh2pO------------------------|
A|--------------------------------------------------3pO----------------|
E|---------------------------------------------------------------------|

e|---------------------------------------------------------------------|
B|---------------------------------------------------------------------|
G|-------2pO----O----O------------O------------------------------------|
D|------------------------4pO----------Oh2pO---------Oh1pO-------------|
A|---------------------------------------------3pO-----------3pO-------|
E|---------------------------------------------------------------------|

e|---------------------------------------------------------------------|
A|---------------------------------------------------------------------|
G|-----------2pO----O----O-----------O---------------------2-----------|
D|----------------------------4pO---------Oh2pO------------------------|
A|--------------------------------------------------3pO----------------|
E|---------------------------------------------------------------------|

e|---------------------------------------------------------------------|
A|---------------------------------------------------------------------|
G|-----------2pO----O----O-----------O---------------------------------|
D|----------------------------4pO---------Oh2pO------------------------|
A|--------------------------------------------------3pO----------------|
E|---------------------------------------------------------------------|
Suggest correction
Creating personal tab
Creating personal tab
You can edit any tab online and save it as your Personal.

You can edit, replace or remove any tab part or add personal notes – all changes will be seen only by you.

Personal tabs can be accessed anytime from any device, even offline.
Learn more »
Give kudos to tab author, rate the tab!
1 2 3 4 5
comments
print report bad tab
guest
Wanna post a correction for this tab? Suggest correction