Oops, an error
Loading. Please wait.

Trabajaré tab

23 views 1 this week
no commentswrite comment
1 2 3 4 5
3 more votes to show rating
add to favorites
×
Save as Personal and add changes to this tab that will be seen only by you. Learn more ›
×
You can save this tab as Personal to edit and correct it or add notes. All changes will be seen only by you. Learn more »
launch autoscroll
font size
0
reset
how to read this tab
guitar tuner
edit
Autoscroll
slow
fast
+/-
esc
set tempo
stop
ok, Dios les bendiga, esta es la tablatura de la alabanza Trabajare,
de los Hnos Chacon disfrutenla.

Originalmente esta en G, y solo usa dos acordes la alabanza completa,
el otro acorde es un D, pero no tengo idea como se llama ese D asi
que aqui esta para que la toquen

10----12----16----14--14--14--14--14--14--14--14--14--14--14-||
12----14----17----15--15--15--15--15--15--15--15--15--15--15-||
-------------------------------------------------------------||
-------------------------------------------------------------||
-------------------------------------------------------------||
-------------------------------------------------------------||

12------12-12-12----15--14--12--10--||
14------14-14-14----16--15--14--12--||
------------------------------------||
------------------------------------||
------------------------------------||
------------------------------------||


--------7--7--9----7-7--9---12-12-12-12---10-9--7--7--||
--8---8----8--10---8-8--10--14-14-14-14---12-10-8--8--||
7---7----------------------------------------7--||
---------------------------------------------------9--||
---------------------------------------------------10-||
------------------------------------------------------||


D?:

 E-||---||
 B-||-3-||
 G-||-5-||
 D-||-4-||
 A-||-5-||
 E-||---||


         G
Ahora vivo trabajando en esta viña
                           D?
porque el maestro así lo ordenó
                          G
veo sarmientos también veo las uvas
           D?                     G
tengo esperanza que también las comeré.

Coro
       D?                       G
//Trabajaré con seguridad en mi alma
        D?                      G
que al terminar mi carrera le veré.//

II
         G
Con este himno te saludo amado hermano
                               G
con la esperanza en nuestro salvador
                          D?
sólo esperando que seas prosperado
        D?                     G
en esta senda de prueba y de dolor.

III
         G
Vamos saliendo de las calles de Egipto,
                           G
vamos saliendo con gran seguridad,
                        D?
vamos llegando a las tierras prometidas
        D?                  G
como Moisés también las contemplo.

            
            
Suggest correction
Creating personal tab
Creating personal tab
You can edit any tab online and save it as your Personal.

You can edit, replace or remove any tab part or add personal notes – all changes will be seen only by you.

Personal tabs can be accessed anytime from any device, even offline.
Learn more »
Give kudos to tab author, rate the tab!
1 2 3 4 5
comments
print report bad tab
guest
Wanna post a correction for this tab? Suggest correction