Oops, an error
Loading. Please wait.

Atravezando Todo Límte tab

version 4
version 4

Whole song

37 views 1 this week
no commentswrite comment
1 2 3 4 5
3 more votes to show rating
add to favorites
×
Save as Personal and add changes to this tab that will be seen only by you. Learn more ›
×
You can save this tab as Personal to edit and correct it or add notes. All changes will be seen only by you. Learn more »
launch autoscroll
font size
0
reset
how to read this tab
guitar tuner
edit
Autoscroll
slow
fast
+/-
esc
set tempo
stop
Aca les mando mi segunda transcripcion, ´´Atravesando Todo Limite´´ de Hermetica.
(Todos los acordes son acrdes 5°)


Intro

    B  B  D E  E   D F# D D   B  B  D E D F# E E  A
|-------------------------------------------------------------|
|-------------------------------------------------------------|
|---4--4--7-9--9---7-11-7-7---4--4--7-9-7-11-7-7--------------|
|---4--4--7-9--9---7-11-7-7---4--4--7-9-7-11-7-7--7-----------|
|-------------------------------------------------7-----------|
|-------------------------------------------------------------|
(Son solamente las quintas y octavas del acorde 5° que figura arriva).


Muletilla
|----------------------------------------------------------|
|----------------------------------------------------------|
|----------------------------------------------------------|
|----------------------------------------------------------|
|---5----4---------5---------------------------------------|
|-------------5----3---------------------------------------|


Intro (x4)

B                  D                A     B
A las montañas del noroeste argentino
 E            A
te dirigiste hermano
B                D              A              B
dejando grabado por siempre en mi corazon
E             A
aquel fuerte abrazo

G              D
donde mostraste tu intima conciencia
A               B   (muletilla)
de guerrero impecable
G                  D
que marcha firme a cumplir su destino
A                B
sin nada a nadie deber

Intro

Paso el tiempo i sin saber nada de vos
corrimos a buscarte,
soñe con verte libre a la luz del sol
Se que lo lograste

Mas solo fueron testigos,
esas inmensidades
historia triste fue verno vencidos
Y sin hallarte volver
tener que volver...

...A enfrentar caras de gente que no entiende
Y que con burlas justifican su ignorancia
olvidando que la pesadilla
suele hacerse realidad

¿y ahi que pasa...?
¿...Que es lo que pasa?


Solo de guitarra


Que el viento lleve esta cancion a tus oidos
salvando distancias
y que en tu estrella observes que aun sigo de pie
es mi esperanza

sigo intentando andar en el camino,
para el cual me formaste
y aunque sin vos se a tornado muy duro,
no me dejare venser
NO TE FALLARE!!!

Si es mi egoismo el que se revela a perderte
y mi alma no saber cual fue tu suerte,
hermano mio, solo resta decirte
que jamas te olvidare
tenlo precente...


Solo

|---------|-------------|-------------------------------------|
|---------|-------------|-------------------------------------|
|--7p6----|-------------|-----6-7-9-7-6-------6-7-9-7-6-------|
|------9--|---%-%-%-%-%-|--9------------9-7-9-----------9~----|
|---------|-------------|-------------------------------------|
|---------|-------------|-------------------------------------|


|-------------------------------------------------------------|
|-------------------------------------------------------------|
|--9b(11)--9--7--9--7--6--7--6--------------------------------|
|-------------------------------7--9~-------------------------|
|-------------------------------------------------------------|
|-------------------------------------------------------------|


|--12b(14)-12~---12b(14)-12~-10-9--------9-10-12-10-9---------|
|---------------------------------12--12--------------12------|
|-------------------------------------------------------------|
|-------------------------------------------------------------|
|-------------------------------------------------------------|
|-------------------------------------------------------------|


|--9-12b(14)~--12p10p12~--------------------------------------|
|-------------------------------------------------------------|
|-------------------------------------------------------------|
|-------------------------------------------------------------|
|-------------------------------------------------------------|
|-------------------------------------------------------------|


Bueno, epero que este  correccion enviarla a juanpablo_mroz@
Suggest correction
Creating personal tab
Creating personal tab
You can edit any tab online and save it as your Personal.

You can edit, replace or remove any tab part or add personal notes – all changes will be seen only by you.

Personal tabs can be accessed anytime from any device, even offline.
Learn more »
Give kudos to tab author, rate the tab!
1 2 3 4 5
comments
print report bad tab
guest
Wanna post a correction for this tab? Suggest correction