Oops, an error
Loading. Please wait.

Buscando Razón tab

version 3
version 3

Whole song

Interactive

51 views 3 this week
no commentswrite comment
1 2 3 4 5
3 more votes to show rating
add to favorites
×
Save as Personal and add changes to this tab that will be seen only by you. Learn more ›
×
You can save this tab as Personal to edit and correct it or add notes. All changes will be seen only by you. Learn more »
launch autoscroll
font size
0
reset
how to read this tab
guitar tuner
edit
Autoscroll
slow
fast
+/-
esc
set tempo
stop
Este es el punteo de la canción, no esta
del todo bien(tampoco es tan mal!) pero
para guiarlos al punteo original les va 
a servir y cuando tengan el punteo bien
sacado me lo pasan por mail.

E/---------------10------------------------------------
B/-(7)/12--10-------13-12-10---10-----------------------
G/------------12------------12------12-11-9-11-9-8-9--9-
D/-------------------------------12----------------------
A/-------------------------------------------------------
E/-------------------------------------------------------

E/-------7-8-10-8-7------------------10-8-7---------(10)/15-14
B/7-8-10------------10-8-7-8-10-8-7---------10-8-7-8----------
G/----------------------------------7-------------------------
D/------------------------------------------------------------
A/------------------------------------------------------------
E/------------------------------------------------------------ 

                                                
E/12----12-14-15-14-12-10--12-14-15-14-12-10-12-14-12---------
B/---12-----------------------------------------------12-10/8-
G/------------------------------------------------------------
D/------------------------------------------------------------
A/------------------------------------------------------------
E/------------------------------------------------------------

E/---------7-8-10-8-7----------------------101010-88-77------
B/--7-8-10------------10-8-7-10-8-7---------------------1010-
G/9---------------------------------9-8-7--------------------
D/-----------------------------------------------------------
A/-----------------------------------------------------------
E/-----------------------------------------------------------

E/88-77-----------------------------------------------------
B/------1010-88-77----88-77---------------------------------
G/-----------------99-------99-88-77------------------------
D/-----------------------------------99-88-77/5-------------
A/----------------------------------------------------------
E/----------------------------------------------------------

Intro:

E/----------------------------------------------------------
B-----------------------------------------------------------
G/---------------------------------------------0----------
D/--2-2--0/2/(0)/(2)--2-2-0/2/(0)/(2)--2-2-0/2---2--------
A/--0-0---------------0-0--------------0-0-----------------
E/----------------------------------------------------------

La / en el intro es para indicarles que se toca una vez la
Cuerda con la mano derecha y los otros son toques que se 
hacen solo con la mano izquierda.


Buscando razón
que me impida despreciarte,
nace esta canción 
que tal vez pueda alcanzarte.

De Salto a Montevideo y de Montevideo para todos.
Dedicado para la gente de Salto Uruguay
 de

            
            
Suggest correction
Creating personal tab
Creating personal tab
You can edit any tab online and save it as your Personal.

You can edit, replace or remove any tab part or add personal notes – all changes will be seen only by you.

Personal tabs can be accessed anytime from any device, even offline.
Learn more »
Give kudos to tab author, rate the tab!
1 2 3 4 5
comments
print report bad tab
guest
Wanna post a correction for this tab? Suggest correction