Oops, an error
Loading. Please wait.

Del Colimba tab

version 1
version 1

Whole song

Interactive

167 views 3 this week
no commentswrite comment
1 2 3 4 5
3 more votes to show rating
add to favorites
×
Save as Personal and add changes to this tab that will be seen only by you. Learn more ›
×
You can save this tab as Personal to edit and correct it or add notes. All changes will be seen only by you. Learn more »
launch autoscroll
font size
0
reset
how to read this tab
guitar tuner
edit
Autoscroll
slow
fast
+/-
esc
set tempo
stop
Bueno como no vi la cancion completa y bien me digne a ponerla..
Estoy seguro que esta perfecta. Los arpegios del comienzo no tenia
ganas de ponerlos, pero si tienen un poco de idea se las pueden
rebuscar- Fijense que hace unas variaciones en el C y Fmaj7 con el sol
del 3er traste de la primera cuerda.

Acorde Fmaj7:

e|-0-|
B|-1-|
G|-2-|
D|-3-|
A|-X-|
E|-X-|


C
Mirando el sol
Fmaj7
desde un cuartel.
C
Uno entre tantos
Fmaj7
de la patria grande.

G
Se va el Domingo y yo
Am
maldigo mi suerte,
G
pues por azar aqui estoy
Am
vestido de verde.

Dm
Fue por sorteo, pibe.
F
Sin tomar parte.
G              F5     G5       A5
Hoy soy quien corre, limpia y barre.


Pre-estribillo:

Fijense que los riff 1 y 2 parecen iguales, pero
si escuchan bien el tema tienen una variacion, y


Riff 1

Riff 2
En un cuartel,

Riff 1
En un cuartel,

Riff 2
en un cuartel.


Riff 1:

  A5  C5 D5    D5/E5   G5   D5/E5  D5
e------------|-----------------------|
B------------|-----------------------|
G-2-2--5--7--|--7/9---(7)----7/9---7-|
D-2-2--5--7--|--7/9---(5)----7/9---7-|
A-0-0--3--5--|--5/7----------5/7---5-|
E------------|-----------------------|

Riff 2:

  A5  C5 D5    D5/E5   D5   C5/D5  C5
e------------|-----------------------|
B------------|-----------------------|
G-2-2--5--7--|--7/9----------5/7---5-|
D-2-2--5--7--|--7/9---(7)----5/7---5-|
A-0-0--3--5--|--5/7---(5)----3/5---3-|
E------------|-----------------------|


Estribillo:


G5                      F5                 Riff 3
Sirviendo a quienes eligieron aqui estar.
G5                    F5
Mis metaleron sueños deben demorarse.
G5                    F5
Estoy forzado a la militar instrucción,
      G5    F5     G5    A5
y cantando trato de aguantar.


Riff 3:

 C5 B5 C5 B5 A5  G5
e--------------------|
B--------------------|
G--------------------|
D-5--4--5--4--2--(5)-|
A-3--2--3--2--0--(5)-|
E----------------(3)-|
PM...............|


Riff 1

Riff 2
En un cuartel,

Riff 1
En un cuartel,

Riff 2
en un cuartel.


Estribillo:


G5                           F5              Riff3
Fue por sorteo y no por por propia voluntad,
G5                      F5
que me han rapado y separado de mis pares.
G5                  F5
Ser vigilante pareciera ser mejor.
G5            F5      G5    C5
Yo cantando, trato de aguantar.


Solo:

 C5                     Fmaj7         C
e------------|---------------------|-------------------|
B------------|-10------------------|-13-12-12h13-12----|
G-10/12v--9~-|----12-9--9h10-9-----|----------------12~|
D------------|-----------------10~-|-------------------|
A------------|---------------------|-------------------|
E------------|---------------------|-------------------|

 Fmaj7                                       G
e-----------------|-----------------------|--------------------|
B-15-13-12--------|-----------------------|--------------------|
G----------12--14-|--12-10-9h10p9---------|-------9-9h10--9----|
D-----------------|----------------12-10--|-10h12-----------12v|
A-----------------|-----------------------|--------------------|
E-----------------|-----------------------|--------------------|

                           Am                          Dm
e-------------------------------------------|-12s-10---10----10------|
B---10--12--13--15--13--12--10----10--13p10-|--------13---13---13--10|
G-9----------------------------12-----------|------------------------|
D-------------------------------------------|------------------------|
A-------------------------------------------|------------------------|
E-------------------------------------------|------------------------|

                        F                    G
e---------------------|----------------------------------------------|
B---------------------|---------------------10----12--10--13--12--10~|
G-12-10-9h10p9--------|-9h10-9------------9----12--------------------|
D---------------12-10-|--------12-10--12-----------------------------|
A---------------------|----------------------------------------------|
E---------------------|----------------------------------------------|


Riff 1         Fill 1
En un cuartel

Riff 2         Fill 2
En un cuartel,

Riff 1         Fill 3
En un cuartel,


Fill 1:                        Fill 2:
e-12s--12p10---10-------| |-----------------------------|
B-----------13---13--10~| |-----------------------------|
G-----------------------| |-----------------------------|
D-----------------------| |-9h10-9--9h10-9----9-10-9----|
A-----------------------| |----------------12--------12~|
E-----------------------| |-----------------------------|

    Fill 3:
e-------------------------------|
B-------------------------------|
G-------------------------------|
D-12h14--12----12h14--12--------|
A-----------15-----------15-----|
E---------------------------15~-|


G5                           F5              Riff3
Fue por sorteo y no por por propia voluntad,
G5                      F5
que me han rapado y separado de mis pares.
G5                  F5
Ser vigilante pareciera ser mejor.
G5            F5      G5    C5
Yo cantando, trato de aguantar.


Riff 1

Riff 2
En un cuartel,

Riff 1
En un cuartel,

Riff 2
en un cuartel.


AGUANTE EL METAL ARGENTO CARAJO!!!
Suggest correction
Creating personal tab
Creating personal tab
You can edit any tab online and save it as your Personal.

You can edit, replace or remove any tab part or add personal notes – all changes will be seen only by you.

Personal tabs can be accessed anytime from any device, even offline.
Learn more »
Give kudos to tab author, rate the tab!
1 2 3 4 5
comments
print report bad tab
guest
Wanna post a correction for this tab? Suggest correction