Oops, an error
Loading. Please wait.

Evitando El Ablande tab

version 3
version 3

Whole song

Interactive

108 views 3 this week
no commentswrite comment
1 2 3 4 5
3 more votes to show rating
add to favorites
×
Save as Personal and add changes to this tab that will be seen only by you. Learn more ›
×
You can save this tab as Personal to edit and correct it or add notes. All changes will be seen only by you. Learn more »
launch autoscroll
font size
0
reset
how to read this tab
guitar tuner
edit
Autoscroll
slow
fast
+/-
esc
set tempo
stop
Tema: Evitando el ablande
Banda: Hermética
Disco: Acido Argentino


       
INTRO:
G5 / F# / Em / C5
G5 / F# / Em / C5 / F#
F# / G5 / A5 / Em                     C5
e|-----------+---------------------------------------+-------------------------------------|
B|-----------+---------------------------------------+-------------------------------------|
G|-----------+---------------------------------------+-------------------------------------|
D|-----------+---------------------------------------+-------------------------------------|
A|-----------+---------------------4--4/10--4--4/10--+-------------------4--4/10--4--4/10--|
E|-----------+----0-0-0-0-0-%-%-%--2--2/8---2--2/8---+--0-0-0-0-0-%-%-%--2--2/8---2--2/8---|

COMO INTRO (Desde Em):
Con mis amigos,
en el concierto
de metal duro,
por sentimiento.
Es fija que me verás
SI estás presente
brindando aguante
con quienes sienten
B5                     C5           F5#
Como yo siento latir en la sangre mía,
G5\F5#
salvando mis días.
B5                     C5           F5#
Junto a su sonido brutal, mi vida
G5\F5#
resiste su ruina.

El es reflejo
de mi presente.
Sin él no hay nada
que me contente.
Por eso sigo
y seguiré en su camino
del cual soy parte
y no me rindo.
Las voces de discotecas no tienen cabida,
en esta movida.
Yo repudio toda esa careta
de mersa coqueta.
Em       D5 G5/F5#/C5/Em                D5   G5/F5#/C5/Em
No callaré,            porque me sobra aguante
Em       D5    G5/F5#/C5/Em  D5                G5 / F# / C5 / Em
y alzo mi voz,             evitando el ablande del ladrón.


                       desenmascarar esas muecas
e|--------------------------------------------------|
B|--------------------------------------------------|
G|--------------------------------------------------|
D|------------4-5--7--5--7-7---------------------2--|
A|------4-5-0-2-3--5--3--5-5---------------------2--|
E|--0-0-2-3--------------------------------------0--|
                      y sus fingidas historietas
e|--------------------------------------------------|
B|--------------------------------------------------|
G|--------------------------------------------------|
D|------------4-5--7--5--4-4---------------------2--|
A|------4-5-0-2-3--5--3--2-2---------------------2--|
E|--0-0-2-3--------------------------------------0--|
                       Esto que digo yo lo siento hoy
e|------------------------------------------------------|
B|------------------------------------------------------|
G|------------------------------------------------------|
D|------------4-5--7--5--7-7-------------------------2--|
A|------4-5-0-2-3--5--3--5-5-------------------------2--|
E|--0-0-2-3------------------------------------------0--|
                       y sabes bien que no te miento
e|------------------------------------------------------|
B|------------------------------------------------------|
G|------------------------------------------------------|
D|------------4-5--7--5--4-4-------------------------2--|
A|------4-5-0-2-3--5--3--2-2-------------------------2--|
E|--0-0-2-3------------------------------------------0--|

Desenmascarar esas muecas
y sus fingidas historietas.
Esto que digo yo lo siento hoy
y sabes bien que no te miento.
SOLO GUITARRA
No callaré, porque me sobra aguante
y alzo mi voz, evitando el ablande.
No callaré, porque me sobra aguante
y alzo mi voz, evitando el ablande.
No callaré, porque me sobra aguante
y alzo mi voz, evitando el ablande.
No callaré, porque me sobra aguante
y alzo mi voz, evitando el ablande del ladrón.
C5
FIN :
G5 / F# / Em / C5
G5 / F# / Em / C5 / Em
 

SOLO GUITARRA:
e|----------------------------------------------------------------------------------------|
B|--12t8^5-%-%--13t8^5-%-%--12t7^4-%-%--12t8^5-%-%----------------------------------------|x2
G|--------------------------------------------------12t9^5-%-%--14t9^5-%-%--11t8^4-%-%-%--|
D|----------------------------------------------------------------------------------------|
A|----------------------------------------------------------------------------------------|
E|----------------------------------------------------------------------------------------|
e|---------------------------------------------------------------------------------------|
B|--8-7-8-5--10/(12)\10^8--10--8-7-8-10-8--7-8-8^7---5--10/(12)-10^8----7-8-10-10^8-7-5--|
G|-------------------------------------------------7-----------------9-------------------|
D|---------------------------------------------------------------------------------------|
A|---------------------------------------------------------------------------------------|
E|---------------------------------------------------------------------------------------|
e|--7-------------+-10-8-7---8-7------7--------------------------|
B|----10-8-8^7----+--------------10-----10-8---10-8-7--8-7-------|
G|-------------9--+----------------------------------------9-7-9-|
D|----------------+----------------------------------------------|
A|----------------+----------------------------------------------|
E|----------------+----------------------------------------------|
                    (supongo que es algo así con tresillos)

Vamos CHE que es facil !

            
            
Suggest correction
Creating personal tab
Creating personal tab
You can edit any tab online and save it as your Personal.

You can edit, replace or remove any tab part or add personal notes – all changes will be seen only by you.

Personal tabs can be accessed anytime from any device, even offline.
Learn more »
Give kudos to tab author, rate the tab!
1 2 3 4 5
comments
print report bad tab
guest
Wanna post a correction for this tab? Suggest correction