Oops, an error
Loading. Please wait.

Memoria De Siglos tab

version 2
version 2

Whole song

Interactive

100 views 1 this week
no commentswrite comment
1 2 3 4 5
3 more votes to show rating
add to favorites
×
Save as Personal and add changes to this tab that will be seen only by you. Learn more ›
×
You can save this tab as Personal to edit and correct it or add notes. All changes will be seen only by you. Learn more »
launch autoscroll
font size
0
reset
how to read this tab
guitar tuner
backing track
0:00
0:00
edit
Autoscroll
slow
fast
+/-
esc
set tempo
stop
E----------------------------------------------------------------
B----------------------------------------------------------------
G----------------------------------------------------------------
D-----2-4-4/5-------2-4/5--4--4p5p5---------------2-4-4/5--------
A---2-------------2-----------------5-----------2----------------
E-0-------------0-----------------------------0------------------
                                          |  Em           x4
E--------------------|--------------------|-----------------------
B--------------------|--------------------|-----------------------
G--------------------|---7--6-4-----------|-----------------------
D-----2-5/7-5-4h5p4--|-5-5--4-2---7--6-4--|------2/4--2~----------
A---2--------------5-|-3--------5-5--3-2--|----2------------------
E-0------------------|----------3---------|--0--------------------

Em
En lo que digo nadie se engaña:
Nos libramos del vencido
Todos barremos con saña
A los ídolos caídos

C                      D
No serás siempre el primero,
LA humana limitación
Cambia a capricho al puntero
               Intro
de toda competición

Olfateamos muchas cosas
entre prisas diariamente
Son verdades deliciosas,
y verdades pestilentes

C                D
Nadie da nada de balde, sabelo
El candor ultimamente esta muy bravo
Aunque la verdad escalde,
                   Em
sobran cadenas y esclavos

Libertad y sus vestigios
Mas vale ponerse a salvo
Muchos calzan gorro frigio
                  Em
Solamente por ser calvos

C                   D
Cubre el cuerpo cualquier capa
El placer también demacra
Todo ser busca una tapa
                   Em
Cada cual cubre su lacra
                   C
Cada cual su lacra oculta

C D x4

C                  D
Aunque en virtudes abunde
y se juzgue inobjetable
Cuando el humano se hunde
                       Em
Siempre busca un responsable

C                D
A menudo nos engañan
Escondidas apetencias
La culpa ajena es barata
                 Em
Regalarla no nos cuesta, nada nos cuesta

C                D
La hipocresía propasa
Todo ejemplo en esta tierra
Al asesinato en masa,
los hombres lo llaman guerra

            
            
Suggest correction
Creating personal tab
Creating personal tab
You can edit any tab online and save it as your Personal.

You can edit, replace or remove any tab part or add personal notes – all changes will be seen only by you.

Personal tabs can be accessed anytime from any device, even offline.
Learn more »
Give kudos to tab author, rate the tab!
1 2 3 4 5
comments
print report bad tab
guest
Wanna post a correction for this tab? Suggest correction