Oops, an error
Loading. Please wait.

Moraleja tab

version 2
version 2

Whole song

Interactive

70 views 1 this week
no commentswrite comment
1 2 3 4 5
3 more votes to show rating
add to favorites
×
Save as Personal and add changes to this tab that will be seen only by you. Learn more ›
×
You can save this tab as Personal to edit and correct it or add notes. All changes will be seen only by you. Learn more »
launch autoscroll
font size
0
reset
how to read this tab
guitar tuner
edit
Autoscroll
slow
fast
+/-
esc
set tempo
stop
 MORALEJA (Hermetica)


    Am      C_G     F       Em      A7      Dm      G       E
  ||---0--||---0--||---1--||---0--||---0--||---1--||---3--||---0--||
  ||---1--||---1--||---1--||---0--||---2--||---3--||---0--||---0--||
  ||---2--||---0--||---2--||---0--||---0--||---2--||---0--||---1--||
  ||---2--||---2--||---3--||---2--||---2--||---0--||---0--||---2--||
  ||---0--||---3--||---3--||---2--||---0--||------||---2--||---2--||
  ||------||---3--||---1--||---0--||------||------||---3--||---0--||

    INTRO
    -----

  Am  |  Am  |  C_G  |  C_G  |

    CANTO
    -----

   Am                                       C-G
   Siempre ansie cantar, el canto macho nativo de mi nacion.
Am                                       C-G
   Para enterarte,para informarte de que tambien yo he nacido.
F                      Em                  F                  Em
   En el terreno del Atlantico a los Andes, del verde Chaco a los hielos
   fueguinos,
F                     Em                      Am      A7
   Tan solo sue¤os alocados de un gringo argentino.

                  Dm   G                      C_G
   Pampas del Ranquel ,  sierras del Comechingon.
Am             A7                     Dm
   Sepan que, quien canta lleva en la sangre
G                          C_G
   la historia final del malon.


   ESTRIBILLO
   ---------- :

         E           Am
   Y conoce la moraleja:
          Dm           Am
   El que no coje se deja,
         E              Am
   por eso lo estoy cantando.

        Dm            Am
   Conoce la moraleja:
          E            Am
   El que no coje se deja.
          Dm             Am
   El que no coje se deja,
        E            Am         A7
   la puta que lo pario..


(Acompañamiento de lo que está debajo)

  ||-0-1-3-5--5-8---8--7---8-7-5-3--1-0-------------5-4------
  ||-2-3-5-6--6-10--10-8--10-8-7-5------3-1--1-3-5-6----1--2-
  ||---------------------------------------------------------
  ||---------------------------------------------------------
  ||---------------------------------------------------------
  ||---------------------------------------------------------

Dm                      G
   Por los niños pobres que no tienen hambre,
C_G                     Am                       Dm
   por la suerte y las apariciones de la luz mala.
E                   Am               A7
   El Cristo salvador, por el diezmo se¤or.

Dm                              G
   Aqui sus pecados hemos de salvarle,
C_G                            Am                       Dm      E      Am
   y vengan las cristianias y la gente, muertas de hambre.


   * CANTO

   * ESTRIBILLO

            
            
Suggest correction
Creating personal tab
Creating personal tab
You can edit any tab online and save it as your Personal.

You can edit, replace or remove any tab part or add personal notes – all changes will be seen only by you.

Personal tabs can be accessed anytime from any device, even offline.
Learn more »
Give kudos to tab author, rate the tab!
1 2 3 4 5
comments
print report bad tab
guest
Wanna post a correction for this tab? Suggest correction