Oops, an error
Loading. Please wait.

Olvídalo Y Volverá Por Más tab

version 4
version 4

Whole song

Interactive

73 views 1 this week
no commentswrite comment
1 2 3 4 5
3 more votes to show rating
add to favorites
×
Save as Personal and add changes to this tab that will be seen only by you. Learn more ›
×
You can save this tab as Personal to edit and correct it or add notes. All changes will be seen only by you. Learn more »
launch autoscroll
font size
0
reset
how to read this tab
guitar tuner
edit
Autoscroll
slow
fast
+/-
esc
set tempo
stop
+Correción del Riff 1 de ?olvidalo y volverá por más? del TAB de  +
|Matías Martínez-matias_megadeth@	                  |
+-+-+-+-+-+-+-+-+-+-+-+-+-+-+-+-+-+-+-+-+-+-+-+-+-+-+-+-+-+-+-+-+-+

Riff1
e|-----1--3----3--2-2----1--3---3--2-2----1--3----3-2-2----1------------|
B|-0-2-------0---------2------0---------2-------0--------2-----3---3--5-|
G|---------------------------------------------------------------0------|
D|--------2-------0-0-------2------0-0-------2------0-0-----------------|
A|-------------------------------------------------------------2------4-|
E|----------------------------------------------------------------------|

Riff2
e|---------------------------------------------------------|
B|---------------------------------------------------------|
G|---5-----------5-7------------5------------5--7--7--7----|
D|-2-5-5-4-4-5-2-5-7-7-7-7-7--2-5-5-4-4-5--2-5--7--7--7--7-|
A|-2-3-5-4-4-5-2-3-5-7-7-7-7--2-3-5-4-4-5--2-3--5--5--5--7-|
E|-0---3-2-2-3-0-----5-5-5-5--0---3-2-2-3--0-------------5-|

Riff 3
e|--------------------|
B|--------------------|
G|-9-7-9----9-7-------|
D|-9-7-9-10-9-7-9-10--|
A|-7-5-7-10-7-5-9-10--|
E|--------8-----7--8--|

Riff 1
Politiqueando un doctor de la ley
gano lugar con solo prometer
carnes asadas convido al pueblo
quien dio su voto creyendo

Que poseía sensibilidad social
que cumpliria sin aflojar
con sus discursos pre-electorales
con los que tejió su fraude

Riff 2
En un avion se llevo el dineral
a donde nadie sabe
seguro de que pronto lo olvidarán
y podrá postularse otra vez

Riff 1
Fue groso el toco que pegó al rajar
amasijando la capital
el desvalije esta latente
lo sabe hasta el presidente

Riff 2
En un avion se llevo el dineral
a donde nadie sabe, porsupuesto
seguro de que pronto lo olvidarán
y podrá postularse otra vez, nuevamente

solo (Riff 3)

Riff 2
Olvidalo y volvera por mas
mostrandose confiable  en los carteles
con prometer a mushos fascinara
y con su nombre pintaran paredes

Riff 3
La muerte es ocultar la verdad
el vacío es dejarse mentir
en un avion se llevó el dineral
y volvera por mas cuando lo olvides

-------------------------------------------------------------------------
Dedicado a los políticos de mierda
Saludos a Cipolletti, Cem 65, 1° 7°, chau
?Parece que sabe de todo pero no hace nada?Cordera

            
            
Suggest correction
Creating personal tab
Creating personal tab
You can edit any tab online and save it as your Personal.

You can edit, replace or remove any tab part or add personal notes – all changes will be seen only by you.

Personal tabs can be accessed anytime from any device, even offline.
Learn more »
Give kudos to tab author, rate the tab!
1 2 3 4 5
comments
print report bad tab
guest
Wanna post a correction for this tab? Suggest correction