Oops, an error
Loading. Please wait.

Robo Un Auto bass

version 1
version 1

Whole song

Interactive

43 views 1 this week
no commentswrite comment
1 2 3 4 5
2 more votes to show rating
add to favorites
×
Save as Personal and add changes to this tab that will be seen only by you. Learn more ›
×
You can save this tab as Personal to edit and correct it or add notes. All changes will be seen only by you. Learn more »
launch autoscroll
font size
0
reset
guitar tuner
edit
Autoscroll
slow
fast
+/-
esc
set tempo
stop
Tema: Robó Un Auto (para bajo)
Banda: Hermética
Disco: Ácido Argentino


Introducción:
G ---------------------------------------------------------------------------------------------
D 2-2-2-2--------------------------------------------------------------------------------------
A ------------2-3-4-5-5-5-5--5-4-2-4--2-------------2-3-4-5-5-5-5--5-4-2-4--2--------
E ----------5---------------------------------5-4-0--5----------------------------------5-4-0-

G -------------------------------
D -------------------------------
A ---2-3-4-5-5-5-5--5-4-2-4-
E 5------------------------------
Riff:
G -----------------------------------------------------------	|
D -----------------------------------------------------------	|
A 4-4-6-7-9---4-4-4-4-4-4---4-4-6-7-9----------------	|
E --------------------------------------------7-7-7-6-4-6-	| X2
Canto: 'Robó un auto para trasladarse...'
G ---------------------------------------------------------------------	|
D ---------------------------------------------------------------------	|
A 7-7-7-7-7-7-7----------------------------------------------------	|
E -----------------7-7-7-7-7-7-7-3-3-3-3-3-3-3-5-5-5-5-5-5-5-	| X2
'Aprovechando el apagón...'
G -----------------------------------
D -----------------------------------
A 4-4-4-4-4-4-4-2-2-2-2-2-2-2-
E -----------------------------------
'Renunciando a las amargas sales...'
G ----------------------------------------------------------------------------------------------
D ----------------------------------------------------------------------------------------------
A ---------------4----------------2-4-4-4-4-4-4-4-2-2-2-2-2-2-2----------------4----------------
E 5-5-5-5-5-5----5-5-5-5-5-5--------------------------------------5-5-5-5-5-5-----5-5-5-5-5-5-5-
Se repite el Riff.
Se repite el Canto
Riff II:
G ------------------------------
D -----------------------------
A 4-4-6-7-9---4-4-4-4-4-4-
E -----------------------------
Estribillo:
G -----------------------------------	|	-----------------------------------
D -----------------------------------	|	-----------------------------------
A -----------------------------------	|	-----------------------------------
E 7-7-7-7-7-7-7-5-5-5-5-5-5-5-	| X3	3-3-3-3-3-3-3-2-2-2-2-2-2-2--
Se repite el Riff II
Durante el solo: se hace el Canto con algunos arreglos.
Se repite el Riff I.
Se repite el Canto.
Se repite el Riff II.
Se repite el Estribillo.
Se repite el Riff I.

            
            
Suggest correction
Creating personal tab
Creating personal tab
You can edit any tab online and save it as your Personal.

You can edit, replace or remove any tab part or add personal notes – all changes will be seen only by you.

Personal tabs can be accessed anytime from any device, even offline.
Learn more »
Give kudos to tab author, rate the tab!
1 2 3 4 5
comments
print report bad tab
guest
Wanna post a correction for this tab? Suggest correction