Oops, an error
Loading. Please wait.

Sepulcro Civil tab

version 1
version 1

Whole song

Interactive

50 views 3 this week
no commentswrite comment
1 2 3 4 5
3 more votes to show rating
add to favorites
×
Save as Personal and add changes to this tab that will be seen only by you. Learn more ›
×
You can save this tab as Personal to edit and correct it or add notes. All changes will be seen only by you. Learn more »
launch autoscroll
font size
0
reset
how to read this tab
guitar tuner
edit
Autoscroll
slow
fast
+/-
esc
set tempo
stop
INtro:
GUITARRA 1:
       MI-RE#-RE              RE-DO#-DO          MI-RE#-RE             SOL-FA#-DO    SOL-FA#-DO
e|-------------------------------------------------------------------------------|--|--------|
B|-------------------------------------------------------------------------------|--|--------|
G|-------------------------------------------------------------------------------|X2|--------|
D|--------9-8-7----------------7-6-5---------------9-8-7-----------------------5-|--|-----5--|
A|--------7-6-5----------------5-4-3---------------7-6-5-----------------5--4--3-|--|-5-4-3--|
E|--0-0-0--------0-0-0-0-0-0-0-------0-0-0-0-0-0-0-------0-0-0-0-0-0-0---3--2----|--|-3-2----|
PM  .....        .............       .............       .............

GUITARRA 2: MIe (puede hacer esto de fondo)                            Sol-FA#-DO    Sol-FA#-DO
e|-------------------------------------------------------------------------------|--|--------|
B|-------------------------------------------------------------------------------|--|--------|
G|-------------------------------------------------------------------------------|X2|--------|
D|----------------------------------------------------------------------------5--|--|-----5--|
A|---7-7-7-7-7-7-7-7-7-7-7-7-7-7-7-7-7-7-7-7-7-7-7-7-7-7-7-7-7-7-7-7-7---5-4--3--|--|-5-4-3--|
E|---0-0-0-0-0-0-0-0-0-0-0-0-0-0-0-0-0-0-0-0-0-0-0-0-0-0-0-0-0-0-0-0-0---3-2-----|--|-3-2----|
Pm   .................................................................
  
BAJO: 
        MI-RE#-RE            RE-DO#-DO           MI-RE#-RE             SOL-FA#-DO    SOL-FA#-DO
G|-------------------------------------------------------------------------------|--|--------|
D|-------------------------------------------------------------------------------|X2|--------|
A|7-------7-6-5----------------5-4-3---------------7-6-5----------------------(3)|--|----(3)-|
E|-----------------------------------------------------------------------3--2----|--|-3-2----|


VERSO 1:

PARTE 1:

GUITARRA:
       MI5                                 MI5               (SOL FA# MI)  SI5
e||---------------------------------|-------------------------------------------------------|
B||---------------------------------|-------------------------------------------------------|
G||---------------------------------|-------------------------------------------------------|
D||-7--9----------------------------|-7--9--------------------12-11--9----------------------|
A||-5--7--7-7-7-7-7-7-7-7-7-7-7-7-7-|-5--7--7-7-7-7-7-7-7-7---10--9--7---9--------------9-9-|
E||---------------------------------|------------------------------------7--7-7-7-7-7-7-7-7-|
PM        ........................          ...............                 ...........
       DO5               LA5 en LA primera vuelta  y SOL5 en la segunda
e|--------------------|-------------------||--|
B|--------------------|-------------------||--|
G|--------------------|-------------------||X2|
D|--------------------|-------------------||--|
A|-9-10---------------|-7-----------------||--|
E|-7--8--8-8-8-8-8-8--|-5---5-5-5-5-5-5---||--|
         ............       ...........

BAJO:       MI                              MI               SOL FA# MI     MI
G||---------------------------------|-------------------------------------------------------|
D||---------------------------------|-------------------------------------------------------|
A||-5--7--7-7-7-7-7-7-7-7-7-7-7-7-7-|-5--7--7-7-7-7-7-7-7-7---10--9--7----------------------|
E||---------------------------------|------------------------------------7--7-7-7-7-7-7-7-7-|
  SI   DO                LA
G|--------------------|-------------------||
D|--------------------|-------------------||X2
A|-2--3--3-3-3-3-3-3--|-0---0-0-0-0-0-0---||
E|--------------------|-------------------||

 MI5                   (SOL FA# MI)
  Sepultado en el suelo.
SI5         DO5    LA5
Explotado y silenciado.
MI5                  (SOL FA# MI)
Frente al río poluído,
 SI5            DO5      SOL5
que evidencia el sistema acabado. 


PARTE 2:

Guitarra:   LA5                SI5                      DO5                      Riff
e|------------------------|------------------------|-------------------------|---------------|
B|------------------------|------------------------|-------------------------|---------------|
G|------------------------|------------------------|-------------------------|---------------|
D|------------------------|------------------------|-------------------------|---------------|
A|--7-------------------7-|--9----------------9--9-|-10----------------10-10-|-----5--5---5--|
E|--5--5-5-5-5-5-5-5-5--5-|--7--7-7-7-7-7-7-7-7--7-|--8--8-8-8-8-8-8-8--8--8-|--0--3--3-0-3--|
PM     ...............          .............            .............
      LA5                SI5                      DO5         LA5              RE5  
e|------------------|-----------------|-----------------|-----------------|--------------------|
B|------------------|-----------------|-----------------|-----------------|--------------------|
G|------------------|-----------------|-----------------|-----------------|--------------77-7-7|
D|------------------|-----------------|-----------------|-----------------|7-------------77-7-7|
A|--7---------------|--9--------------|-10--------------|--7--------------|5-55555555555-55-5-5|
E|--5--5-5-5-5-5-5--|--7--7-7-7-7-7-7-|--8--8-8-8-8-8-8-|--5--5-5-5-5-5-5-|--------------------|
 PM    ...........        ...........       ...........       ...........    ...........

BAJO:  LA                           SI                      DO                 riff
G|------------------------|------------------------|-------------------------|---------------|
D|------------------------|------------------------|-------------------------|---------------|
A|------------------------|------------------------|-------------------------|---------------|
E|--5--5-5-5-5-5-5-5-5--5-|--7--7-7-7-7-7-7-7-7--7-|--8--8-8-8-8-8-8-8--8--8-|--0--3--3-0-3--|
      LA                SI                      DO          LA                  RE  
G|------------------|-----------------|-----------------|-----------------|-------------------|
D|------------------|-----------------|-----------------|-----------------|--------------------|
A|------------------|-----------------|-----------------|-----------------|5-55555555555-55-5-5|
E|--5--5-5-5-5-5-5--|--7--7-7-7-7-7-7-|--8--8-8-8-8-8-8-|--5--5-5-5-5-5-5-|--------------------|

LA5    SI5                 
Basta, nada hay que ocultar.
DO5              RIFF
Muerto estoy aquí.
LA5  SI5 DO5 LA5 RE5
Tras el  por-ve-nir


VERSO 2: (igual)


 MI5                   (SOL FA# MI)
Demorados contra el paredon.
 SI5         DO5    LA5
Controlados por el represor.
 MI5                   (SOL FA# MI)
Sometidos al circo de la tonta identidad,
 SI5            DO5    SOL5
para esconder el basurero nuclear. 


LA5    SI5                 
Basta, nada hay que ocultar.
DO5              RIFF
Muerto estoy aquí.
LA5  SI5 DO5 LA5 RE5
Tras el  por-ve-nir


ESTRIBILLO 1:

GUITARRA:
   MI.RE.MI                MI.RE.SOL               MI.RE.MI                  DO5       SI5
e|------------------------------------------------------------------------|------------------|
B|------------------------------------------------------------------------|------------------|
G|------------------------------------------------------------------------|------------------|X2
D|-9-7-9-------------------9-7-12-------------------9-7-9-----------------|------------------|
A|-7-5-7-------------------7-5-10-------------------7-5-7-----------------|10--------9-------|
E|-------0-0-0-0-0-0-0-0-----------0-0-0-0-0-0-0-0--------0-0-0-0-0-0-0-0-|-8-888888-7-777777|
PM       ...............           ...............        ...............     ......   ......
y despues.
    DO5               SI5           DO5                 RE5
e|---------------|----------------|----------------|-----------------|
B|---------------|----------------|----------------|-----------------|
G|---------------|----------------|----------------|-----------------|y engancha con el puente
D|---------------|----------------|----------------|-7---------------|
A|10-------------|-9--------------|10--------------|-5--5-5-5-5-5-5--|
E|-8--8-8-8-8-8-8|-7--7-7-7-7-7-7-|-8--8-8-8-8-8-8-|-----------------|
Pm    ...........     ...........      ...........      ...........     

BAJO: 
  MI.RE.MI                MI.RE.SOL               MI.RE.MI                  DO       SI
G|------------------------------------------------------------------------|------------------|
D|------------------------------------------------------------------------|------------------|
A|-7-5-7-------------------7-5-10-------------------7-5-7-----------------|------------------|
E|-------0-0-0-----0-0-0-----------0-0-0-----0-0-0--------0-0-0-----0-0-0-|-8-888888-7-777777|
     DO                 SI                 DO         RE
G|---------------|----------------|----------------|-----------------|
D|---------------|----------------|----------------|-----------------|
A|---------------|----------------|----------------|-5--5-5-5-5-5-5--|
E|-8--8-8-8-8-8-8|-7--7-7-7-7-7-7-|-8--8-8-8-8-8-8-|-----------------|


 MI.RE.MI     MI.RE.SOL
Sin futuro,  sin piedad.
 MI.RE.MI       DO5   SI5
Sin conciencia fraternal.
MI.RE.MI     MI.RE.SOL
Han mutado   la raíz,
 MI.RE.MI   DO5 SI5  DO5 SI5  DO5 RE5 y PUENTE
aniquilando el país, tu país, mi  pa--ís. 


PUENTE:
GUITARRA 1:
       MI-RE#-RE              RE-DO#-DO          MI-RE#-RE             SOL-FA#-DO    SOL-FA#-DO
e|-------------------------------------------------------------------------------------------|
B|-------------------------------------------------------------------------------------------|
G|-------------------------------------------------------------------------------------------|
D|--------9-8-7----------------7-6-5---------------9-8-7-----------------------5----------5--|
A|--------7-6-5----------------5-4-3---------------7-6-5-----------------5--4--3-----5--4-3--|
E|--0-0-0--------0-0-0-0-0-0-0-------0-0-0-0-0-0-0-------0-0-0-0-0-0-0---3--2--------3--2----|
PM  .....        .............       .............       .............
 
BAJO: 
        MI-RE#-RE            RE-DO#-DO           MI-RE#-RE             SOL-FA#-DO    SOL-FA#-DO
G|-------------------------------------------------------------------------------------------|
D|-------------------------------------------------------------------------------------------|
A|7-------7-6-5----------------5-4-3---------------7-6-5----------------------(3)--------(3)-|
E|-----------------------------------------------------------------------3--2---------3-2----|


SOLO DE GUITARRA:


GUITARRA 2:
   SI5                     DO5                       SOL5               SI5
e|----------------------|-----------------------|----------------------|----------------------|
B|----------------------|-----------------------|----------------------|----------------------|
G|----------------------|-----------------------|----------------------|----------------------|
D|-4--------------------|-5---------------------|----------------------|-4--------------------|
A|-2-2-2-2-2-2-2-2-2-2-2|-3-3-3-3-3-3-3-3-3-3-3-|-5--------------------|-2-2-2-2-2-2-2-2-2-2-2|
E|----------------------|-----------------------|-3-3-3-3-3-3-3-3-3-3-3|----------------------|
PM   ...................    ...................     ...................    ...................
 DO5                       MI5                      RE5                  DO5
e|-----------------------|----------------------|----------------------|-----------------------|
B|-----------------------|----------------------|----------------------|-----------------------|
G|-----------------------|----------------------|----------------------|-----------------------|
D|-5---------------------|-9--------------------|-7--------------------|-5---------------------|
A|-3-3-3-3-3-3-3-3-3-3-3-|-7-7-7-7-7-7-7-7-7-7-7|-5-5-5-5-5-5-5-5-5-5-5|-3-3-3-3-3-3-3-3-3-3-3-|
E|-----------------------|----------------------|----------------------|-----------------------|
     ...................     ...................    ...................    ..................
  SI5                         SI5*                  
e|-----------------------|----------------------||
B|-----------------------|----------------------||
G|-----------------------|----------------------||
D|-4---------------------|----------------------||
A|-2-2-2-2-2-2-2-2-2-2-2-|2-2-2-2-2-2-2-2-2-2-2-||
E|-----------------------|----------------------||
 PM  ...........................................    
    MI5                 RE5    DO5                           RE5            DO   SI5
e||-------------------|-------------------------------|--------------------|--------------------|
B||-------------------|-------------------------------|--------------------|--------------------|
G||-------------------|-------------------------------|--------------------|--------------------|
D||---------------9-9-|--7---5------------------------|--7-------------7-7-|-5--4---------------|
A||-7-7-7-7-7-7-7-7-7-|--5---3-3-3-3-3-3-3-3-3-3-3-3-3|--5-5-5-5-5-5-5-5-5-|-3--2--222222222222-|
E||-------------------|-------------------------------|--------------------|--------------------|
PM ...............             ......................      ...........            ............
   DO 5                 SI5    LA5                        SI5                   SI5*
e|--------------------|-------------------------------|-----------------------|--------------|
B|--------------------|-------------------------------|-----------------------|--------------|
G|--------------------|-------------------------------|-----------------------|--------------|X2
D|5---------------5-5-|--4---2------------------------|--4--------------------|--------------|
A|3-3-3-3-3-3-3-3-3-3-|--2---0-0-0-0-0-0-0-0-0-0-0-0--|--2-2-2-2-2-2-2-2-2-2-2|22222222222222|
E|--------------------|-------------------------------|-----------------------|--------------|
Pm  .............              .....................       ................... ..............


BAJO : el bajo toca lo mismo que la guitarra 2 pero en los  Si5* toca este riff

    bien rapido
G||-------------------------------------------------||
D||-------------------------------------------------||
A||--2-2-2-2-2-2---2-2-2-2-0-0-0-0---------2-2-2-2--||
E||--------------------------------3-3-3-3----------||


GUITARRA (Solo)                  
   SI5                                       parte rapida    
e|------------------------|-------------|--------------------------------------------------|
B|------------------------|-------------|-15-13-12-15-13-12----13-12------12---------------|
G|------------------------|----9-11-12~-|-------------------14------14-12----14-12-11--(11)|
D|-------------------7-9~-|-10----------|--------------------------------------------14----|
A|9----------7-9-10-------|-------------|--------------------------------------------------|
E|7-7-7-9-10--------------|-------------|--------------------------------------------------|
PM   .................
                                      Rapido
e|--------|------------------------|-------.---------------------|------------------------------|
B|--------|----------------/12-----|10-12-13----12-10---10-------|---------------(10b)-10p8-(10)|
G|-12--11~|-12-11-9-11-12~-----14~-|-----------------------12-9~-|-(11~)-11-9-------------------|
D|--------|------------------------|-----------------------------|------------12----------------|
A|--------|------------------------|-----------------------------|------------------------------|
E|--------|------------------------|-----------------------------|------------------------------|
  a los caños...
e|------------------------------------------------------------------------------------------|
B|------------------------------------------------------------------------------------------|
G|------------------------------------------------------------------------------------------|
D|------------------------------------------------------------------------------------------|
A|------------------------------------------------------------------------------------------|
E|------------------------------------------------------------------------------------------|

e|------------------------------------------------------------------------------------------|
B|------------------------------------------------------------------------------------------|
G|------------------------------------------------------------------------------------------|
D|------------------------------------------------------------------------------------------|
A|------------------------------------------------------------------------------------------|
E|------------------------------------------------------------------------------------------|

  MI5
e|--------------------------------------|----------------------------------------------|
B|--13--------15~13-12--13-12-13p12-----|-----------13~-12-10--12-10--12p10------------|
G|-----13--------------------------(14)-|-14-13-----------------------------(12~)------|
D|--------12----------------------------|-------13-------------------------------------|
A|--------------------------------------|----------------------------------------------|
E|--------------------------------------|----------------------------------------------|
pm .........                             .........
                                      Rapido
e|----------------------------------|-------------------------------------------------------|
B|-----------12~-10-8-(10)-8h10--8~-|-------------------------------------------------------|
G|-12--9----------------------------|-------------------------------------------------------|
D|-------10-------------------------|-------------------------------------------------------|
A|----------------------------------|-------------------------------------------------------|
E|----------------------------------|-------------------------------------------------------|
 ...........
e|------------------------------------------------------------------------------------------|
B|------------------------------------------------------------------------------------------|
G|------------------------------------------------------------------------------------------|
D|------------------------------------------------------------------------------------------|
A|------------------------------------------------------------------------------------------|
E|------------------------------------------------------------------------------------------|


e|------------------------------------------------------------------------------------------|
B|------------------------------------------------------------------------------------------|
G|------------------------------------------------------------------------------------------|
D|------------------------------------------------------------------------------------------|
A|------------------------------------------------------------------------------------------|
E|------------------------------------------------------------------------------------------|


VERSO 3: (igual)

 MI5                   (SOL FA# MI)
Conformada y aburrida
 SI5         DO5    LA5
es la enferma sociedad latina.
 MI5                        (SOL FA# MI)
Que usa las reglas de  la creencia oficial,
SI5         DO5    SOL5
para esconder su hipocresía. 

LA5    SI5 
Basta, ya no puedo ver
DO5              RIFF
tanta mierda en torno a mi.
LA5  SI5 DO5 LA5 RE5
Muerto estoy a-quí. 


ESTRIBILLO 2 (igual)

 MI.RE.MI     MI.RE.SOL
Sin futuro,  sin piedad.
 MI.RE.MI       DO5   SI5
Sin conciencia fraternal.
MI.RE.MI     MI.RE.SOL
Han mutado   la raíz,
 MI.RE.MI   DO5 SI5  DO5 SI5  DO5 RE5  MI5 y final
aniquilando el país, tu país, mi  pa--ís. 


GUITARRA 1: (final)
    MI5                 MI-RE#-RE   SOL-FA#-MI
e|---------------------|---------------------||
B|---------------------|---------------------||
G|---------------------|---------------------||
D|---------------------|-9-8-7-----------9---||
A|--7-7-7-7-7-7-7-7-7-7|-7-6-5----5--4---7---||
E|--0-0-0-0-0-0-0-0-0-0|----------3--2-------||
PM  ...................
  MI                    MI-RE#-RE   SOL-FA#-MI
G|---------------------|---------------------||
D|---------------------|---------------------||
A|--7-7-7-7-7-7-7-7-7-7|-7-6-5----10-9---7---||
E|---------------------|---------------------||


Fin.
Suggest correction
Creating personal tab
Creating personal tab
You can edit any tab online and save it as your Personal.

You can edit, replace or remove any tab part or add personal notes – all changes will be seen only by you.

Personal tabs can be accessed anytime from any device, even offline.
Learn more »
Give kudos to tab author, rate the tab!
1 2 3 4 5
comments
print report bad tab
guest
Wanna post a correction for this tab? Suggest correction