Oops, an error
Loading. Please wait.

Soy De La Esquina tab

version 2
version 2

Whole song

Interactive

57 views 1 this week
no commentswrite comment
1 2 3 4 5
3 more votes to show rating
add to favorites
×
Save as Personal and add changes to this tab that will be seen only by you. Learn more ›
×
You can save this tab as Personal to edit and correct it or add notes. All changes will be seen only by you. Learn more »
launch autoscroll
font size
0
reset
how to read this tab
guitar tuner
edit
Autoscroll
slow
fast
+/-
esc
set tempo
stop
intro:
1|--------------------------------------------------|--|----------------------|
2|--------------------------------------------------|--|----------------------|
3|----------------------------------------5/4--5/4--|x2|--5/4--5/4---2-2-2-2--|
4|--4------------------5-5----------------3/2--3/2--|--|--3/2--3/2---0-0-0-0--|
5|--2-2--2-2-2--2-2-2--3-3--2-2-2--2-2-2------------|--|----------------------|
6|--------------------------------------------------|--|----------------------|
  pm.................      .............

Riff1: Cervesas en la esquina...
1|--------------------------------------------------|
2|--------------------------------------------------|
3|----------------------------------------5/4--5/4--|
4|--4------------------5-5----------------3/2--3/2--|
5|--2-2--2-2-2--2-2-2--3-3--2-2-2--2-2-2------------|
6|--------------------------------------------------|
  pm.................      .............

Riff2: halli esperan mis ammigos...
1|---------------------------------|
2|---------------------------------|
3|---------------------------------|
4|-----5------7--------5------7----|
5|--4--3---5--5-----4--3---5--5----|
6|--2------3--------2------3-------|


Repite
Riff 1
Riff 2

Riff4
1|------------------------------------------------------------|
2|------------------------------------------------------------|
3|------------------------------------------------------------|
4|--------------------5/4--4-5--------------5/4--4/5----------|
5|-----2---------5/4--3/2--2-3---------5/4--3/2--2/3---3h2p0--|
6|7/3--0--0-0-0--3/2------------0-0-0--3/2--------------------|
         pm....                 ......
 
Riff2: halli esperan mis ammigos...
1|---------------------------------|
2|---------------------------------|
3|---------------------------------|
4|-----5------7--------5------7----|
5|--4--3---5--5-----4--3---5--5----|
6|--2------3--------2------3-------|

Riff5
1|------------------------------------------|
2|------------------------------------------|
3|------------------------------------------|
4|-------------------------------5-7--------|
5|-2------------3hp2-------------3-5--3hp2--|
6|-0--0-0-0-0-0-------0-0-0-0-0-------------|
     pm.........     ...........

solo

1|----------------------------------------------------------------------------
2|----------------------------------------------------------------------------
3|-------------------------------------9(11)-9hp7-9~~~--21t9-19t9-18t9-17t9---
4|---------------------------7-10-9--9----------------------------------------
5|--9-------------7-9-7-8-10--------------------------------------------------
6|--7--7-9-10-7-9-------------------------------------------------------------


  --10-8-7---------10-9-8-7-------------10------------------------------------
  ---------10-9-7-----------10-8-7--8-7-----7-8-10----------------------------
  --------------------------------------------------10-8-7----7~~~------------
  ----------------------------------------------------------------------------
  ----------------------------------------------------------------------------
  ----------------------------------------------------------------------------


  --------------------------------------------------------------------------------
  --------------------------------------------------------------------------------
  ---7(9)-8hp7~~-10-8-7-----8-7---------8hp7---7-6-4-------8-7-------5-4-2--3-2-1-
  ----------------------10------10-9-7---------------8-7-4-----5-4-2--------------
  --------------------------------------------------------------------------------
  --------------------------------------------------------------------------------

  
  ------------------------------------------------------------------------------------------------
  --------------------------------------------------------------------------------------13(15)~~--
  ------------------------------------------------------------------------------------------------
  ------2-----------4-----------2----7-5-4----------2/7-5-------4/9-7------2---7-5-4--------------
  --3-5---5-3---5-7---7-5---3-5---5--------5-5--3-5---------5-7--------3-5---5-------5------------
  ------------------------------------------------------------------------------------------------

Nota:Ahora les mando unos de mis temas favoritos esun
tema que ahy que tener buen manejo de pua sobre todo 
en los riff consultas farmacen@

            
            
Suggest correction
Creating personal tab
Creating personal tab
You can edit any tab online and save it as your Personal.

You can edit, replace or remove any tab part or add personal notes – all changes will be seen only by you.

Personal tabs can be accessed anytime from any device, even offline.
Learn more »
Give kudos to tab author, rate the tab!
1 2 3 4 5
comments
print report bad tab
guest
Wanna post a correction for this tab? Suggest correction