Oops, an error
Loading. Please wait.

Vida Impersonal chords

version 1
version 1

Whole song

Interactive

46 views 3 this week
no commentswrite comment
1 2 3 4 5
3 more votes to show rating
add to favorites
×
Save as Personal and add changes to this tab that will be seen only by you. Learn more ›
×
You can save this tab as Personal to edit and correct it or add notes. All changes will be seen only by you. Learn more »
launch autoscroll
font size
0
reset
transpose
0
reset
display chords
guitar tuner
edit
Autoscroll
slow
fast
+/-
esc
set tempo
stop
Strumming
There is no strumming pattern for this song yet. and get +5 IQ
Tema: Vida Impersonal
Banda: Hermética
Disco: Hermética
autor: Alejandro


e----------------------------------------
B---------------------------------------
G-----------------------------------------
D----------------------4------4-------------
A-----------4--5--7------7-------------------
E----5--7------------------------------------

e----------------------------------------
B---------------------------------------
G-----------------------------------------
D----------------------4-------------------
A-----------4--5--7------7-----5--4--------------
E----5--7------------------------------------

e----------------------------------------
B---------------------------------------
G-----------------------------------------
D----------------------4--------7--5--4--0-----
A-----------4--5--7------7-------------------
E----5--7------------------------------------

TODOS LOS ACORDES SON EN QUINTA ES DECIR (B = B5)


| G | A | (tapando)

D B 
Ya no maltrates a tu animal,
D
pues no lo debes vencer,
B
sino amar y salvar.
D B 
Te lo digo antes de que estes..


G A
Ahogado por la pared
D A B
que sostienen las £ltimas sombras
D A B
que la congelan de revelación.
D A B
Sostenida por los muertos
G A
que viven en lo externo.


D B
Que como nubes vienen y van.
D
Alimentando al Ser, 
B
Testigos de la eternidad. PARTE A
D B
Incapaces de comprender,
G A
que es hora de amanecer.


D B
La tierra se iluminar 
D B
cuando liguen a su rollo la vida impersonal.
D B
Y no existirá otra ley PARTE A
G A
que la íntima conciencia.


B E
No, no esperes de mi nada especial.
B E
No busco influenciarte ni convencerte.
B E PARTE B
Fuera de ti no hay ningún mediador.
G A B
En el mundo no hallarás mas que ilusión.

Pues en el mundo no hallarás mas que ilusión.
Te lo digo hoy.

ESTO ULTIMO SOBRE :

|e f | g f# e | D | f# g a |

|e e f# | g f# e | a | a |


SOLO SOBRE
D A B | D A B| D A B| G A|


No, no esperes de mi nada especial.
Lo que tu buscas dentro tuyo esta. IGUAL A PARTE B
Fuera de ti no hay ningún mediador.
En el mundo no hallarás mas que ilusión.

La tierra se iluminar 
cuando los hombres acepten la vida impersonal. IGUAL A PARTE A
Y no existir otra ley
que la íntima conciencia.

Destronando al cerdo sin paz.
Generación de serpientes ya reinar no podrá. IGUAL A PARTE A
No habrá velos que te impidan ver
la inmortalidad de tu ser.


D A B
Fuera de ti 
D A B
no hay mediador.
D A B 
En el mundo 

A A D A B
no hallaras mas que ilusión.


Vamos loco que el tema esta perfecto , ni un error ... 
Aguante Hermetica carajo !!

            
            
Suggest correction
Creating personal tab
Creating personal tab
You can edit any tab online and save it as your Personal.

You can edit, replace or remove any tab part or add personal notes – all changes will be seen only by you.

Personal tabs can be accessed anytime from any device, even offline.
Learn more »
Give kudos to tab author, rate the tab!
1 2 3 4 5
comments
print report bad tab
guest
Wanna post a correction for this tab? Suggest correction