Oops, an error
Loading. Please wait.

Vida Impersonal tab

version 1
version 1

Whole song

Interactive

77 views 1 this week
no commentswrite comment
1 2 3 4 5
3 more votes to show rating
add to favorites
×
Save as Personal and add changes to this tab that will be seen only by you. Learn more ›
×
You can save this tab as Personal to edit and correct it or add notes. All changes will be seen only by you. Learn more »
launch autoscroll
font size
0
reset
how to read this tab
guitar tuner
edit
Autoscroll
slow
fast
+/-
esc
set tempo
stop
INTRO:
GUITARRA:

e|-----------------------------|----------------------------|--------------------------------|
B|-----------------------------|----------------------------|--------------------------------|
G|------------------6-----(9)--|-----------------6----------|----------------6-----9-7-6-----|
D|---------6--7--9--4--9--(7)--|--------6--7--9--4--9--7--6-|-------6--7--9--4--9--7-5-4-7---|
A|---7--9--4--5--7-----7-------|--7--9--4--5--7-----7--5--4-|--7--9-4--5--7-----7--------5---|
E|---5--7----------------------|--5--7----------------------|--5--7--------------------------|
       SOL5              LA5
e|-------------------------------------|
B|-------------------------------------|
G|-------------------------------------|
D|-------------------------------------|
A|--5-----------------7----------------|
E|--3-3-3-3-3-3-3-3---5-5-5-5-5-5-5-5--|
PM    .............     .............
BAJO:
G|-----------------------------|----------------------------|--------------------------------|
D|------------------4-----(7)--|-----------------4----------|----------------4-----7-5-4-----|
A|---------4--5--7-----7-------|--------4--5--7-----7--5--4-|-------4--5--7-----7--------5---|
E|---5--7----------------------|--5--7----------------------|--5--7--------------------------|
     SOL                LA
G|-------------------------------------|
D|-------------------------------------|
A|-------------------------------------|
E|--3-3-3-3-3-3-3-3---5-5-5-5-5-5-5-5--|


VERSO 1:
GUITARRA:
   RE5     SI5       RE5    SI5     RE5      SI5
e|-------|-------|-------|-------|-------|-------||
B|-------|-------|-------|-------|-------|-------||
G|--(7)--|-------|--(7)--|-------|--(7)--|-------||
D|--(7)--|--(9)--|--(7)--|--(9)--|--(7)--|--(9)--|| 
A|--(5)--|--(9)--|--(5)--|--(9)--|--(5)--|--(9)--||
E|-------|--(7)--|-------|--(7)--|-------|--(7)--||

BAJO: RE    SI     RE       SI     RE       SI
G|-------|-------|-------|-------|-------|-------||
D|-------|-------|-------|-------|-------|-------||
A|--(5)--|-------|--(5)--|-------|--(5)--|-------||
E|-------|--(7)--|-------|--(7)--|-------|--(7)--||


RE5                   SI5
Ya no maltrates a tu animal,
RE5
pues no lo debes vencer,
SI5
sino amar y salvar.
RE5                       SI5 
Te lo digo antes de que estes..


despues......

GUITARRA SOL5         LA5               RE5 LA5  SI5  RE5 LA5  SI5  RE5 LA5  SI5
e|-----------------------------------|---------------|-------------|-------------|------|----|
B|-----------------------------------|---------------|-------------|-------------|------|----|
G|-----------------------------------|---------------|-------------|-------------|-SOL5-|-LA5|
D|-----------------------------------|--(7)----------|-(7)---------|(7)----------|------|----|
A|--5------------------7-------------|--(5)-(7)--(9)-|-(5)-(7)--(9)|(5)--(7)--(9)|------|----|
E|--3-333-333-333-33---5-555-555-555-|------(5)--(7)-|-----(5)--(7)|-----(5)--(7)|------|----|
PM    .............    .............

BAJO:  SOL              LA              RE  LA   SI    RE  LA   SI   RE  LA   SI
G|-----------------------------------|---------------|-------------|-------------|------|----|
D|-----------------------------------|---------------|-------------|-------------|--Sol-|-La-|
A|-----------------------------------|--(5)----------|-(5)---------|(5)----------|------|----|
E|--3-333-333-333-33---5-555-555-555-|------(5)--(7)-|-----(5)--(7)|-----(5)--(7)|------|----|


SOL5      LA5
Ahogado por la pared
        RE5        LA5        SI5
que sostienen las ultimas sombras
RE5    LA5       SI5
que la congelan de revelación.
RE5    LA5       SI5
Sostenida por los muertos
SOL5      LA5
que viven en lo externo.


sigue ASI.......


Guitarra: RIFF
    RE5           LA5 SI5  LA5 SI5
e|-----------------------------------|---|------|------||
B|-----------------------------------|---|------|------||
G|-----------------------------------|X3-|-SOL5-|-LA5--|| --X2
D|--7--------------------------------|---|------|------||
A|--5-555-555-555--7-9------7--9-----|---|------|------||
E|-----------------5-7-777--5--7-777-|---|------|------||
PM    ...........      ...
BAJO:  RE          LA SI  LA SI
G|-----------------------------------|---|------|------||
D|-----------------------------------|X3-|-Sol--|--La--||--X2
A|--5-555-555-555--------------------|---|------|------||
E|-----------------5-7-777--5-7-777--|---|------|------||

(con RIFF)

RE5                 SI5
Que como nubes vienen y van.
RE5
Alimentando al Ser, 
SI5
Testigos de la eternidad. 
RE5          SI5
Incapaces de comprender,
SOL5        LA5
que es hora de amanecer.


RE5             SI5
La tierra se iluminar 
RE5                         SI5
cuando liguen a su rollo la vida impersonal.
RE5            SI5
Y no existirá otra ley 
SOL5          LA5
que la íntima conciencia.


ESTRIBILLO 1:

GUITARRA :
    SI5            MI5                               SI5
e|--------------|--------------|--|------|------|--------------|
B|--------------|--------------|--|------|------|--------------|
G|--------------|----------(9)-|X3|-SOL5-|-LA5--|--------------| y deja sonando
D|----------(9)-|--9--9----(9)-|--|------|------|--9--9---(9)--|
A|--9--9----(9)-|--7--7--x-(7)-|--|------|------|--9--9---(9)--|
E|--7--7--x-(7)-|--------------|--|------|------|--7--7---(7)--|

BAJO:  SI           MI                            SI
G|--------------|--------------|--|------|------|--------------|
D|--------------|--------------|X3|-Sol--|--La--|--------------|
A|--------------|--7--7--7-(7)-|--|------|------|--------------|
E|--7--7--7-(7)-|--------------|--|------|------|--7--7---(7)--|


 SI5                 MI5
No, no esperes de mi nada especial.
 SI5                  MI5
No busco influenciarte ni convencerte.
 SI5                MI5
Fuera de ti no hay ningún mediador.
SOL5             LA5               SI5
En el mundo no hallarás mas que ilusión.


POS_ ESTRIBILLO1:

GUITARRA :(Melodia de la voz)                                    LA5
e|--------------------------------------------------------------------------|
B|--------------------------------------------------------------------------|
G|--------------------------------------------------------------9-9-9-9-9-9-|
D|--9--9-9-11-12--11-9-(7)--11--12--14--(9)-9--9-9-11-12-11-9---7-7-7-7-7-7-|
A|--7--7-7--9-10---9-7-(5)---9--10--12--(7)-7--7-7--9-10--9-7---------------|
E|--------------------------------------------------------------------------|

BAJO: (Melodia de la voz)

G|--------------------------------------------------------------------------|
D|---------------------------------------------------------------7-7-7-7-7-7|
A|--7--7-7--9-10---9-7-(5)---9--10--12--(7)-7--7-7--9-10--9-7---------------|
E|--------------------------------------------------------------------------|


GUITARRA Y BAJO (melodia)

Pues en el mundo no hallaras más que ilución.
               LA5
Te lo digo hoy. 


SOLO DE GUITARRA:

Guitarra2:               
    RE5           LA5 SI5                          SOl5     RE  LA5
e|-----------------------------------|---|-------------------|---------------||
B|-----------------------------------|---|-------------------|---------------||
G|-----------------------------------|X3-|-------------------|---------------||--X2
D|--7--------------------------------|---|------------------7|---------------||
A|--5-555-555-555--7-9-------------7-|---|--5---------------5|-7-------------||
E|-----------------5-7-777-777-777-5-|---|--3-333-333-333----|-5-555-555-555-||
PM    ...........      ... ... ...            ...........        ...........

BAJO:  RE          LA SI 
G|-----------------------------------|---|-------------------|---------------||
D|-----------------------------------|X3-|-------------------|---------------||--X2
A|--5-555-555-555--------------------|---|------------------5|---------------||
E|-----------------5-7-777-777-777-5-|---|--3-333-333-333----|-5-555-555-555-||


GUITARRA (solo).
e|------------------------------------------------------------------------------------------|
B|------------------------------------------------------------------------------------------|
G|------------------------------------------------------------------------------------------|
D|------------------------------------------------------------------------------------------|
A|------------------------------------------------------------------------------------------|
E|------------------------------------------------------------------------------------------|


ESTRIBILLO 2  (igual)

No, no esperes de mi nada especial.
Lo que tu buscas dentro tuyo esta. 
Fuera de ti no hay ningún mediador.       pero no hace el ultimo Si (engancha con verso)
En el mundo no hallarás mas que ilusión.


VERSO 2

Guitarra: RIFF
    RE5           LA5 SI5  LA5 SI5
e|-----------------------------------|---|------|------||
B|-----------------------------------|---|------|------||
G|-----------------------------------|X3-|-SOL5-|-LA5--|| --X2
D|--7--------------------------------|---|------|------||
A|--5-555-555-555--7-9------7--9-----|---|------|------||
E|-----------------5-7-777--5--7-777-|---|------|------||
PM    ...........      ...
BAJO:  RE          LA SI  LA SI
G|-----------------------------------|---|------|------||
D|-----------------------------------|X3-|-Sol--|--La--||--X2
A|--5-555-555-555--------------------|---|------|------||
E|-----------------5-7-777--5-7-777--|---|------|------||


CON RIFF

La tierra se iluminar 
cuando los hombres acepten la vida impersonal. 
Y no existir otra ley
que la íntima conciencia.

Destronando al cerdo sin paz.
Generación de serpientes ya reinar no podrá. 
No habrá velos que te impidan ver
la inmortalidad de tu ser.


FINAL
GUITARRA 
     RE5 LA5  SI5  RE5 LA5  SI5  RE5 LA5  SI5               RE5  LA5 SI5
e||---------------|-------------|-------------|------|----|---------------|
B||---------------|-------------|-------------|------|----|---------------|
G||---------------|-------------|-------------|-SOL5-|-LA5|---------------|
D||--(7)----------|-(7)---------|(7)----------|------|----|(7)------------|   fin
A||--(5)-(7)--(9)-|-(5)-(7)--(9)|(5)--(7)--(9)|------|----|(5)--(7)-9-(9)-|
E||------(5)--(7)-|-----(5)--(7)|-----(5)--(7)|------|----|-----(5)-7-(7)-|


BAJO: RE  LA   SI    RE  LA   SI   RE  LA   SI
G||---------------|-------------|-------------|------|----|---------------|
D||---------------|-------------|-------------|--Sol-|-La-|---------------|
A||--(5)----------|-(5)---------|(5)----------|------|----|-(5)-----------|
E||------(5)--(7)-|-----(5)--(7)|-----(5)--(7)|------|----|-----(5)-7-(7)-|


RE5 LA5 SI5
Fuera de ti 
RE5 LA5 SI5
no hay mediador.
RE5 LA5 SI5
En el mundo 

SOL5            LA5          (RE5-LA5-SI5)   
no hallaras mas que ilusión.


fin...

            
            
Suggest correction
Creating personal tab
Creating personal tab
You can edit any tab online and save it as your Personal.

You can edit, replace or remove any tab part or add personal notes – all changes will be seen only by you.

Personal tabs can be accessed anytime from any device, even offline.
Learn more »
Give kudos to tab author, rate the tab!
1 2 3 4 5
comments
print report bad tab
guest
Wanna post a correction for this tab? Suggest correction