Oops, an error
Loading. Please wait.

Vientos De Poder bass

version 1
version 1

Whole song

Interactive

67 views 3 this week
no commentswrite comment
1 2 3 4 5
3 more votes to show rating
add to favorites
×
Save as Personal and add changes to this tab that will be seen only by you. Learn more ›
×
You can save this tab as Personal to edit and correct it or add notes. All changes will be seen only by you. Learn more »
launch autoscroll
font size
0
reset
guitar tuner
edit
Autoscroll
slow
fast
+/-
esc
set tempo
stop
Esta completa es mi segunda presentacion y creo q esta barbara
cualquier cosa mi mail es yoleo_1@ gracias
y aguante el metal!!


INTRO

G|---------|--------|-----| |-------------|
D|---------|--------|-----| |-------------|
A|---------|--------|5-7-8| |-----1----?5-| X2  (11 seg)bien separado
E|-5-5-5-5-|0-0-0-0-|-----| |3-1----------|    E|-0-0-0-0-


G|---------------------------|
D|---------------------------| x4
A|---------------------------|
E|-0-0-0-0-0-0-0-0-0-0-0-0-0-|


Verso


   Vientos    de     poder
G|------------------------------
D|------------------------------
A|-7-7-7-7-7-7-7-7-7-7--?8-7-5--
E|------------------------------


G|----------------------------------
D|----------------------------------
A|--------------------------------5-
E|-0-0-0-0-0-0-0-0-0?-5-7-8-7-5-7---  X 4


Las copulas se agitan por mostrar decencia...
G|-----------------------------
D|----------------------------- Riff1
A|-------------------------5/3-
E|-0-0-0-0-0-0-0-0-0-0-0-0-----


     Y el pobre envejecido sigue la procesión...
G|----------------------------------------
D|----------------------------------------  X 2  Riff2
A|-----------------------3-3----3-3-------
E|-2-2-2-2-2-2-2-2-2-2-2----2-2----2-2-2-2


Yo no vendo canciones de amor vendido... riff 1

Pero no estoy vencido aun tengo fuerzas... riff 2


Estribillo x 2

G|-------------------------------------------
D|-------------------------------------------
A|------------------3----------------------5-
E|-0-0-0-0-0-0-0-0---3-5-----5-5-8-7-8-5-8---


G|-------------------------------------------
D|-------------------------------------------
A|------------------3------------------------
E|-0-0-0-0-0-0-0-0---3-5-----5-5-5?--5-5-5---


Antes Del Solo.


G|-------------------------------------
D|-------------------------------------
A|-----8/7-----5/7-----8/7------------- RIFF3
E|-0-0-----0-0-----0-0-----0-0-7-------

Durante el solo

G|-------------------------------------------
D|-------------------------------------------
A|------------------3----------------------5-
E|-0-0-0-0-0-0-0-0---3-5-----5-5-8-7-8-5-8---

G|------------------------------------------------------
D|------------------------------------------------------
A|------------------3-----------------------------------
E|-0-0-0-0-0-0-0-0---3-5---2-2-2-2-2-2-2?0-0-0-0?00-0?0-  X2

G|--------------------------------------------------------------
D|--------------------------------------------------------------
A|--3---------------------5-------------------------------------
E|----3-5----5-5-8-7-8-5-8---2-2-2-2-2-2-2-2---0-0-0-0-0-0-0-0-0

G|----------------------------------------------
D|----------------------------------------------
A|---------------------------------3--3?-3--3---
E|-0-0-0-0-0-0-0-0?2-2-2-2-2-2-2-2-------------- X4


ESTRIBILLO.

Final riff3 x2


Nadia sos el amor de mi vida!!!!!!
-Aguante tren loco carajo-

            
            
Suggest correction
Creating personal tab
Creating personal tab
You can edit any tab online and save it as your Personal.

You can edit, replace or remove any tab part or add personal notes – all changes will be seen only by you.

Personal tabs can be accessed anytime from any device, even offline.
Learn more »
Give kudos to tab author, rate the tab!
1 2 3 4 5
comments
print report bad tab
guest
Wanna post a correction for this tab? Suggest correction