Oops, an error
Loading. Please wait.

Caracola tab

31 views 1 this week
no commentswrite comment
1 2 3 4 5
3 more votes to show rating
add to favorites
×
Save as Personal and add changes to this tab that will be seen only by you. Learn more ›
×
You can save this tab as Personal to edit and correct it or add notes. All changes will be seen only by you. Learn more »
launch autoscroll
font size
0
reset
how to read this tab
guitar tuner
edit
Autoscroll
slow
fast
+/-
esc
set tempo
stop
introducciôn :
 F - C - D - A# - A7 - C

e|-8-8-8----------------8------------------------------------------|
B|-------11-10-8-8-10-8---10-8-10-8-------8----11-10----8----------|
G|----------------------------------10-10---10-------10---10-9-9-9-|
D|-----------------------------------------------------------------|
A|-----------------------------------------------------------------|
E|-----------------------------------------------------------------|

 F - C - D - A# - A7 - C

e|-8-8-8----------------8------------------------------------------|
B|-------11-10-8-8-10-8---10-8-10-8-------8----11-10----8----------|
G|----------------------------------10-10---10-------10---10-9-9-9-|
D|-----------------------------------------------------------------|
A|-----------------------------------------------------------------|
E|-----------------------------------------------------------------|

F            C            D
UNA VEZ BROTO DE LOS SILENCIOS
A#            C            F      C
CANTO DE GARGANTA Y CORAZON
F             C             D
TODAS LAS PRADERAS ME SINTIERON
A#            A7                D
ERA LLUVIA FRESCA, FUE EL AMOR

 F - C - D - A# - A7 - C

e|-8-8-8----------------8------------------------------------------|
B|-------11-10-8-8-10-8---10-8-10-8-------8----11-10----8----------|
G|----------------------------------10-10---10-------10---10-9-9-9-|
D|-----------------------------------------------------------------|
A|-----------------------------------------------------------------|
E|-----------------------------------------------------------------|

F          C                  D
EL ATARDECER HACE MI ESPERA
A#              C              F      C
TIEMPO DE RECUERDO Y DE DOLOR
F                C               D
BUSCO EN ESTA PLAYA TU PRESENCIA
A#                  A7          D
ES QUE ESTOY TAN SOLO SIN AMOR
A#                  A7               D
NUESTRO AMIGO EL MAR DURMIENDO ESTA


estr :

A#         C               F      A7
DEJAME DECIR ESTOY VACIO
D              A7            C
FALTA EN ESTA CASA TU CALOR
F              A7                  D
HECHA LEÑA AL FUEGO QUE HACE FRIO
A#      F      A7      D
AY LUGAR PARA LOS DOS
A#      F      A7      D
AY LUGAR PARA LOS DOS

 F - C - D - A# - A7 - C

e|-8-8-8----------------8------------------------------------------|
B|-------11-10-8-8-10-8---10-8-10-8-------8----11-10----8----------|
G|----------------------------------10-10---10-------10---10-9-9-9-|
D|-----------------------------------------------------------------|
A|-----------------------------------------------------------------|
E|-----------------------------------------------------------------|

 F - C - D - A# - A7 - C

e|-8-8-8----------------8------------------------------------------|
B|-------11-10-8-8-10-8---10-8-10-8-------8----11-10----8----------|
G|----------------------------------10-10---10-------10---10-9-9-9-|
D|-----------------------------------------------------------------|
A|-----------------------------------------------------------------|
E|-----------------------------------------------------------------|


CUANDO ENTRE LA NOCHE BUSQUE EL SUEÑO
LO ANCHO DE MI CAMA SENTIRE
SOLEDAD QUE SUFRE LOS LUCEROS
EN LA INMENCIDAD SIN COMIENZO Y SIN FINAL

AUN SIENTO EN MI PIEL EL SOL TARDIO
TINTA DE ORO Y COBRES DE RINCON
SE QUE EN TU ALMA VUELAN CARACOLAS
CADA INSTANTE FUE DE VIENTO Y MAR
LE PREGUNTO A EL DONDE ESTARAS

estr :
DEJAME DECIR ESTOY VACIO
FALTA EN ESTA CASA TU CALOR
HECHA LEÑA AL FUEGO QUE HACE FRIO
AY LUGAR PARA LOS DOS
AY LUGAR PARA LOS DOS

 F - C - D - A# - A7 - C

            
            
Suggest correction
Creating personal tab
Creating personal tab
You can edit any tab online and save it as your Personal.

You can edit, replace or remove any tab part or add personal notes – all changes will be seen only by you.

Personal tabs can be accessed anytime from any device, even offline.
Learn more »
Give kudos to tab author, rate the tab!
1 2 3 4 5
comments
print report bad tab
guest
Wanna post a correction for this tab? Suggest correction