Oops, an error
Loading. Please wait.

Ivan El Terrible tab

17 views 1 this week
no commentswrite comment
1 2 3 4 5
3 more votes to show rating
add to favorites
×
Save as Personal and add changes to this tab that will be seen only by you. Learn more ›
×
You can save this tab as Personal to edit and correct it or add notes. All changes will be seen only by you. Learn more »
launch autoscroll
font size
0
reset
how to read this tab
guitar tuner
edit
Autoscroll
slow
fast
+/-
esc
set tempo
stop
INtRO:
    G#       B     E                  D#
D#|----------------------------------------------------------------------|
A#|-----------------18--18-18-20-18-18-17---17-T18-17-T18-17-T18-17-T18--|
F#|-~14---14/~17----17-----------------14--------------------------------|
C#|----------------------------------------------------------------------|
G#|----------------------------------------------------------------------|
D#|----------------------------------------------------------------------|

VERSO1:
   G#5      B5       E5  D#5
D#|---------------------------|
A#|---------------------------|
F#|---------5--5-5-5----------|
C#|-7--7-7--5--5-5-5--3--2----|
G#|-7--7-7--3--3-3-3--3--2----|
D#|-5--5-5------------1--0----|

Y PATEO LA MESA ROMPO BOTELLAS..............................
(con ligados)C#                   D#
D#|-----------------------------------------------------------|
A#|-----------------------------------------------------------|
F#|--7--7L-5--7--7L-5--7--7L-5----9--9---7-5-4---5-4----------|
C#|-------------------------------9--9---------7-----7-5------|
G#|-------------------------------7--7-------------------7----|
D#|-----------------------------------------------------------|

VERSO 2
(palmuted)
    G#5      B5       E5  D#5
D#|---------------------------|
A#|---------------------------|
F#|---------5--5-5-5----------|
C#|-7--7-7--5--5-5-5--3--2----|
G#|-7--7-7--3--3-3-3--3--2----|
D#|-5--5-5------------1--0----|

Y PATEO LA MESA ROMPO BOTELLAS...............
(con ligados)C#                   D#
D#|-----------------------------------------------------------|
A#|-----------------------------------------------------------|
F#|--7--7L-5--7--7L-5--7--7L-5----9--9---7-5-4---5-4----------|
C#|-------------------------------9--9---------7-----7-5------|
G#|-------------------------------7--7-------------------7----|
D#|-----------------------------------------------------------|

    G#5      B5        E5  D#5
D#|------------------------------|
A#|------------------------------|
F#|--------------------10--9-----|
C#|-7-7-----10-10------10--9-----|X8
G#|-7-7-----10-10------8---7-----|
D#|-5-5-----8--8-----------------|

MATO UNO MATO 2 MATO TRES  Y AL CUATRO ME LO LLEVO YO

PUNTEO:(weno no saco los solos) FIN
Suggest correction
Creating personal tab
Creating personal tab
You can edit any tab online and save it as your Personal.

You can edit, replace or remove any tab part or add personal notes – all changes will be seen only by you.

Personal tabs can be accessed anytime from any device, even offline.
Learn more »
Give kudos to tab author, rate the tab!
1 2 3 4 5
comments
print report bad tab
guest
Wanna post a correction for this tab? Suggest correction