Oops, an error
Loading. Please wait.

La Casa Invita tab

8 views 1 this week
no commentswrite comment
1 2 3 4 5
3 more votes to show rating
add to favorites
×
Save as Personal and add changes to this tab that will be seen only by you. Learn more ›
×
You can save this tab as Personal to edit and correct it or add notes. All changes will be seen only by you. Learn more »
launch autoscroll
font size
0
reset
how to read this tab
guitar tuner
edit
Autoscroll
slow
fast
+/-
esc
set tempo
stop
iNTRo:G5  D5  E5*  C5 D5 X2

E|------------------------------------------
B|------------------------------------------
G|-b14-b14--14-12-b14-14-12-----12-14-12-12-
D|------------------------14----------------
A|------------------------------------------
E|------------------------------------------

E|----------------------------------------------|
B|--------------------15------------------------|
G|-----12-14-12-14/16----16-14-12----12/14-12---|
D|--14----------------------------14------------|
A|----------------------------------------------|
E|----------------------------------------------|

G5
todo ya paso
D5
lo que hasta fue solo amor
E5
Aun me importas algo,
C5          D5
mi vida mi ilusion
G5
Y Ahogo mis penas
D5
con cigarro y licor
E5                      C5        D5
No alcanzo las riendas de mi corazon

G5         D5           E5             C5       D5
Cantinero 2 serpentinas bien helenas al Polo Campos

E|----------------------------------------------------------
B|----------------------------------------------------------
G|----------------------------------------------------------
D|----------------------------------------------------------
A|-s10-----s14----s19-----s15-------s17-----s14-------s10---
E|----------------------------------------------------------
Me hace falta un sencillo, no hay problema la casa invita

G5            E5    C5    D5        x2
LA lala lalalala   LA lalalala  LA

G5
todo ya paso
D5
lo que hasta ayer fue un error
E5*
Aun me importas algo
C5           D5
mi vida mi ilusion
G5
Y ahogo mis penas
D5
con cigarro y licor
E5                  C5           D5
Disculpen amigos si una lagrima cayo

G5         D5           E5             C5       D5
Cantinero 2 serpentinas bien helenas al Polo Campos

A|-s10------s14-----s19------s15--------s17------s14--------s10----
Me hace falta un amigo, no hay problema la casa invita

G5           E5*    C5    D5        x2
LA lala lalalala   LA lalalala  LA

G5         D5           E5             C5       D5
Cantinero 2 serpentinas bien helenas al Polo Campos

A|-s10------s14-----s19------s15--------s17------s14--------s10--
Me hace falta un amigo, no hay problema la casa invita

A|-s10------s14-----s19------s15--------s17------s14--------s10--
Me hace falta un sencillo, no hay problema la casa invita

A|-s15--------s17------s14--------s10-
no hay problema la casa invita.

            
            
Suggest correction
Creating personal tab
Creating personal tab
You can edit any tab online and save it as your Personal.

You can edit, replace or remove any tab part or add personal notes – all changes will be seen only by you.

Personal tabs can be accessed anytime from any device, even offline.
Learn more »
Give kudos to tab author, rate the tab!
1 2 3 4 5
comments
print report bad tab
guest
Wanna post a correction for this tab? Suggest correction