Oops, an error
Loading. Please wait.

Los Punk Nunca Mueren tab

7 views 1 this week
no commentswrite comment
1 2 3 4 5
3 more votes to show rating
add to favorites
×
Save as Personal and add changes to this tab that will be seen only by you. Learn more ›
×
You can save this tab as Personal to edit and correct it or add notes. All changes will be seen only by you. Learn more »
launch autoscroll
font size
0
reset
how to read this tab
guitar tuner
edit
Autoscroll
slow
fast
+/-
esc
set tempo
stop
IntRO: G5
     G5       D5     C5      D5       G5*      D5     C5   D5
E-|--------------------------------------------------------------
B-|--------------------------------------------------------------
G-|-----------7-7--5-5-5-5---7-7--12-12-12-12--7-7--5-5-5--7-7---
D-|--5-5-5-5--7-7--5-5-5-5---7-7--12-12-12-12--7-7--5-5-5--7-7---  X2
A-|--3-3-3-3--5-5--3-3-3-3---5-5--10-10-10-10--5-5--3-3-3--5-5---
E-|--3-3-3-3-----------------------------------------------------

(G5)             C5  D5
Despues de esta vida
G5             C5   D5
no nos volveremos a ver
G5             C5   D5
la ley de este infierno
G5                C5
que los gusanos devoren
 D5      D5
seso, carne y sangre

C5            D5
y la verdad lo se
G5     F#5        E5
que en la feria de la vida
C5             D5
existe un mar de lagrimas

G5        C5     D5
Viva la anarquia
G5        C5     D5
Viva la utopia
G5        C5     D5           D5
Los opresores murieron su gente tambien

C5           D5
y la verdad lo se
G5     F#5        E5
que en la feria de la vida
C5             D5
existe un mar de lagrimas
C5                 D5      G5
Y es que a su memoria hoy queremos
C5          D5
entonar gritar

Que los punks nunca mueren!!!
(SE REPITE EL INTRO)

E-|------------------------------------
B-|------------------------------7-7---
G-|------5-5-----5-5-----5-5-----7-7---
D-|--5-5-5-5-5-5-5-5-5-5-5-5-5-5------- X3
A-|--5-5-3-3-5-5-3-3-5-5-3-3-5-5-------
E-|--3-3-----3-3-----3-3-----3-3-------

Si ves la muerte canta y grita
Los punks no mueren!!
C5 D5 G5
no mueren!
C5 D5 G5
no mueren!
C5 D5 G5
no mueren!
C5 D5 G5.....

            
            
Suggest correction
Creating personal tab
Creating personal tab
You can edit any tab online and save it as your Personal.

You can edit, replace or remove any tab part or add personal notes – all changes will be seen only by you.

Personal tabs can be accessed anytime from any device, even offline.
Learn more »
Give kudos to tab author, rate the tab!
1 2 3 4 5
comments
print report bad tab
guest
Wanna post a correction for this tab? Suggest correction